Song name
# A B C D E F G H I J K L M N O P Q R S T U V W X Y Z

The Radiators - Drinkin Dragons Blood tab

Help us improve GuitareTab! Take a short survey!
-------------------------------------------------------------------------------
			     Drinkin' Dragon's Blood - The Radiators
-------------------------------------------------------------------------------
Tabbed by: Kent

One from America's greatest band. This is accurate enough to jam out to, then again I'm
little drunk...then again one should be if you're listenin' to the Rads.

yeah
e|---------------------------------------------------------------------------|
b|---------------------------------------------------------------------------|
g|---------------------------------------------------------------------------|
d|---------------------------------------------------------------------------|
a|------3----5----5b7r5-3----------3---5---5b7r5-3---------3----5----5b7r5-3-|
E|-5----------------------5-3-5-------------------5-3-5---------------------5|

e|---------------------------------------------------------------------------|
B|---------------------------------------------------------------------------|
G|------------5--------------------------------------------------------------|
D|--------2---5--5-----------------------------------------------------------|
A|--------2---3--5-----------------------------------------------------------|
E|-3-5----0------3-----------------------------------------------------------|
repeat that guy, like, until you don't want to anymore


if you want to get really crazy, i mean, like, insane:
e|---------------------------------------------------------------------------|
b|------5----7----7b9r7-5----------------------------------------------------|
g|------5----7----7b9r7-5----------------------------------------------------|
d|-7---------------------7-5-5-etc-------------------------------------------|
a|---------------------------------------------------------------------------|
E|---------------------------------------------------------------------------|


Just wanna have a little fun, skin's dryin' out in the sun...
e|---------------------------------------------------------------------------|
b|---------------------------------------------------------------------------|
g|----5b7---5b7r7b7----------------------------------------------------------|
d|----5b7---5b7r7b7----------------------------------------------------------|
a|---------------------------------------------------------------------------|
E|-5------5------------------------------------------------------------------|
until the end of each verse:

e|---------------------------------------------------------------------------|
b|-5-5-7-7-------------------------------------------------------------------|
g|-5-5-7-7-------------------------------------------------------------------|
d|-5-5-7-7-------------------------------------------------------------------|
a|-x-x-5-5-------------------------------------------------------------------|
E|-5-5-----------------------------------------------------------------------|
back to main dragon-ey riff

| /  slide up
| \  slide down
| h  hammer-on
| p  pull-off
| ~  vibrato
| +  harmonic
| x  Mute note
===============================================================================
Related for Drinkin Dragons Blood tab