Song name
# A B C D E F G H I J K L M N O P Q R S T U V W X Y Z

The Radiators - Life On Mars tab

-------------------------------------------------------------------------------
			   Life on Mars - The Radiators
-------------------------------------------------------------------------------
Tabbed by: Kent

Keyboard intro doing something like:
e|---------------------------------------------------------------------------|
B|---------------------------------------------------------------------------|
G|-5b------------------------------------------------------------------------|
D|-x-7---7-----5-2-5-7---7---------------------------------------------------|
A|-0-0-0-0-0-0-0-0-0-0-0-0-0-0-0-0-------------------------------------------|
E|---------------------------------------------------------------------------|
repeats for awhile

But when the guitar comes in for the A, it's more like:
e|---------------------------------------------------------------------------|
B|-5b---------------5b-------------------------------------------------------|
G|-5b-----------5b--5b-------------------------------------------------------|
D|-5b-7-x-7-x-x-5b--5b-7-x-7-x-x-x-x-----------------------------------------|
A|-----------------7---------------------------------------------------------|
E|---------------------------------------------------------------------------|
Play this phrase over and over whenever there's an A chord.


[A]Where's the man with the little red hat?
He said he'd have (????) underneath the lock
It goes [D7]on   [D7sus4] [D7]
It goes [A]on.
[Em]Don't look know, I think we [D]found, [D]life [C]on [A]mars.

[A]Where's the girl from an undersea world?
Her ray-gun's green. It's got a mean beam.
It goes [D7]on   [D7sus4] [D7]
It goes [A]on.
[Em]Don't look know, I think we [D]found, [D]life [C]on [A]mars.

We came here (????)
Paintin' the town red(????)
It goes on....

Where's that place with the ceilin' in space?
The frenchman on the floor, he gives a mighty roar
It goes on.....


| /  slide up
| \  slide down
| h  hammer-on
| p  pull-off
| ~  vibrato
| +  harmonic
| x  Mute note
===============================================================================
Tap to rate this tab
 
# A B C D E F G H I J K L M N O P Q R S T U V W X Y Z