Song name
# A B C D E F G H I J K L M N O P Q R S T U V W X Y Z

The Radio Dept - 1995 tab

-------------------------------------------------------------------------------
			     1995 - the Radio Dept.
-------------------------------------------------------------------------------
Tabbed by: maako

Tuning:EADGBE
                               [Intro/Main Riff]
e|-------------------------------------|---------------------------------------|
B|-------------------------------------|---------------------------------------|
G|6-6-6-6-4-7-6-1-1-1-1-1-2-2-2-2------|-6-6-6-6-4-7-6-1-1-1-1-1-2-2-2-2-------|  
D|-------------------------------------|---------------------------------------|
A|-------------------------------------|---------------------------------------|
E|-------------------------------------|---------------------------------------|

e|-------------------------------------|---------------------------------------|
B|-------------------------------------|---------------------------------------|
G|11-11-11-11-9-12-11-6-6-6-6-6-7-7-7-7|-6-6-6-6-4-7-6-1-1-1-1-1-2-2-2-2-------|
D|-------------------------------------|---------------------------------------|
A|-------------------------------------|---------------------------------------|
E|-------------------------------------|---------------------------------------|
                                    [Chorus]
e|-------12-------12---------------12-------12---------------------------------|
B|----12-------12-------12------12-------12-------12---------------------------|
G|-14-------14-------14------14-------14-------14------------------------------|
D|-----------------------------------------------------------------------------|
A|-----------------------------------------------------------------------------|
E|-----------------------------------------------------------------------------|

e|-------12--------12---------------12-------12--------------------------------|
B|----12--------12-------12------12-------12-------12--------------------------|
G|-13--------13-------13------13-------13-------13-----------------------------|
D|-----------------------------------------------------------------------------|
A|-----------------------------------------------------------------------------|
E|-----------------------------------------------------------------------------|

e|-------12-------12---------------12-------12---------------------------------|
B|----12-------12-------12------12-------12-------12---------------------------|
G|-14-------14-------14------13-------13-------13------------------------------|
D|-----------------------------------------------------------------------------|
A|-----------------------------------------------------------------------------|
E|-----------------------------------------------------------------------------|

                                   [Chorus End]
e|-----4-4-4-----------------------------------------------------------------|
B|------------4-4-4-5--------------------------------------------------------|
G|---------------------------------------------------------------------------|
D|---------------------------------------------------------------------------|
A|---------------------------------------------------------------------------|
E|---------------------------------------------------------------------------|

                                  [Chorus #2 End]
e|---------------------------------------------------------------------------|
B|---------------------------------------------------------------------------|
G|-----14-13-11-9-6-----6-7-9---4s6------------------------------------------|
D|---------------------------------------------------------------------------|
A|---------------------------------------------------------------------------|
E|---------------------------------------------------------------------------|
Tap to rate this tab
 
# A B C D E F G H I J K L M N O P Q R S T U V W X Y Z