Song name
# A B C D E F G H I J K L M N O P Q R S T U V W X Y Z

The Radio Dept - Heavens On Fire chords

Highlighted       Show chord diagrams
-----------------------------------------------------------------------------
		     HEAVEN'S ON FIRE - The Radio Dept.
-----------------------------------------------------------------------------
Tabbed by: waxed_mustache
Email: none

Tuning: Standard EADGBE

   Fm7    D#maj7    Dm   D#maj7
e|--8-------6-------5------6------------------------------------------------|
B|--9-------8-------6------8------------------------------------------------|
G|--8-------7-------7------7------------------------------------------------|
D|--10------8-------7------8------------------------------------------------|
A|--8-------6-------5------6------------------------------------------------|
E|--8-------6-------5------6------------------------------------------------|
    3x      5x      3x     5x

Listen to the song for the rhythm. Have fun.

************************************

| /   slide up
| \   slide down
| h   hammer-on
| p   pull-off
| ~   vibrato
| +   harmonic
| x   Mute note
| b   Bend
| pb  Pre-bend
| br  Bend release
| pbr Pre-bend release
| brb Bend release bend

************************************
Tap to rate this tab
 
# A B C D E F G H I J K L M N O P Q R S T U V W X Y Z