Song name
# A B C D E F G H I J K L M N O P Q R S T U V W X Y Z

The Radio Dept - Its Been Eight Years tab

The Radio Dept - It's Been Eight Years


Hi. This is how i play this song.



D              F#m 
It's been eight years
            A
I'd like to travel through time
G               F#m    Bm
But I can't do that

D         F#m           A
I never knew that good experiences
              G          F#m    Bm
Could cause a pain like this

F#m
       Bm                     G
I want something that I can't have

D G D G Bm G A 


e|------------------------------------------------------|
B|--19-21---16-----11-18-16-18---11-18-16--7-9----------|
G|-------------17---------------------------------------|
D|------------------------------------------------------|
A|------------------------------------------------------|
E|------------------------------------------------------|

D            F#m                A
I close my eyes and someone is calling my name
            G           F#m    Bm
I lean over the window pane
D               F#m       A                  G           F#m    Bm
And in the distance I can just about catch a glimpse of us

F#m
         Bm
We had a ball
          G
We had it all

D G D G Bm G A 

e|-----------------------------------------------------|
B|-----------------------------------------------------|
G|-/14-12-11-12-9-11-7/2--/14-12-11-12-9-11-7-2/7------|
D|-----------------------------------------------------|
A|-----------------------------------------------------|
E|-----------------------------------------------------|

e|------------------------------------------------------|
B|------------------------------------------------------|
G|--/14-12-11-12-9-11-7--9-11/12------------------------|
D|------------------------------------------------------|
A|------------------------------------------------------|
E|------------------------------------------------------|

e|-----------------------------------------------------------------------|
B|-----------------------------------------------------------------------|
G|---/14-12-11-12-9-11-7/2--/14-12-11-12-9-11-7--11-9-11--7/9--11-12-----|
D|-----------------------------------------------------------------------|
A|-----------------------------------------------------------------------|
E|-----------------------------------------------------------------------|



End on D
Tap to rate this tab
 
# A B C D E F G H I J K L M N O P Q R S T U V W X Y Z