Song name
# A B C D E F G H I J K L M N O P Q R S T U V W X Y Z

The Radio Dept - A Token Of Gratitude tab

-------------------------------------------------------------------------------
                             A token Of Gratitude - The Radio Dept
-------------------------------------------------------------------------------
Tabbed by:nicholas
E-mail:nicholasjklose@gmail.com
Tuning:standard

the chords are E and A it switches into a C#minor at some point
the guitar part behind them goes something like this

e|-------------------------------------------------------------------------------------|
B|-------------------------------------------------------------------------------------|
G|---2---0-----------------------------------------------------------------------------|
D|------------2-----1-----------4/1---4--2--1------------------------------------------|
A|-2---2---2-----2-----2---4\6-----------------2---------------------------------------|
E|-------------------------------------------------------------------------------------|

another part is like this

e|-------------------------------------------------------------------------------|
B|-------------------------------------------------------------------------------|
G|----8/1------------------------------------------------------------------------|
D|-------------------------------------------------------------------------------|
A|-------------------------------------------------------------------------------|
E|-------------------------------------------------------------------------------|

idk
************************************

| /   slide up
| \   slide down
| h   hammer-on
| p   pull-off
| ~   vibrato
| +   harmonic
| x   Mute note
| b   Bend
| pb  Pre-bend
| br  Bend release
| pbr Pre-bend release
| brb Bend release bend

************************************
Tap to rate this tab
# A B C D E F G H I J K L M N O P Q R S T U V W X Y Z