Song name
# A B C D E F G H I J K L M N O P Q R S T U V W X Y Z

The Radio Dept - I Dont Like It Like This tab

Intro/Verse:                                                            
                                                                Dmaj7
E|---------------------------------------------------------------------------------------|
B|---------------------------------------------------------------------------------------|
G|-------------------------------------------------0------4------------------------------|
D|-4----------2s4--------------5-------------------2------5------------------------------|
A|-5---------------------------5-------------------3------3------------------------------| x2
E|-----------------------------3---------------------------------------------------------|

                                                                Dmaj7
E|-----------------------------------------------------------------------|
B|-----------------------------------------------------------------------|
G|-7--6--7----------------------0-----5----------------------------------|
D|-4--5--5-------5--------------2-----4----------------------------------|
A|-5--4--4-------5--------------3-----3----------------------------------|
E|---------------3-------------------------------------------------------|






Dmaj7          G5
Words fail me all the time
C            Cmaj7             Dmaj7
I don't even feel like talking 
Dmaj7       G       
Still I go on and on
C              Cmaj7                
I'm dying here and you keep walking

G            D            
why are you asking me this?
G             D          
can't you see I'm trying?
G       D                  
I don't like it like this
G                   D 
no I think I'm dying 

Dmaj7         G5
I can't calm down at all
C             Cmaj7           
panic is what panic feels like
Dmaj7         G5  
can't we just stay silent?
C                  Cmaj7 -
speaking now seems far too violent 


G            D            
why are you asking me this?
G             D          
can't you see I'm trying?
G       D                  
I don't like it like this
G                   D 
no I think I'm dying 

E|---------------------------------------------------------------------------------|
B|---------------------------------------------------------------------------------|
G|-----9-9~------9-9-9--7-7-7---------7-7-7----------------------------------------|
D|-----------------------------7s9-----------4-4-4-2-------------------------------|
A|---------------------------------------------------------------------------------| x2
E|---------------------------------------------------------------------------------|
Tap to rate this tab
# A B C D E F G H I J K L M N O P Q R S T U V W X Y Z