Song name
# A B C D E F G H I J K L M N O P Q R S T U V W X Y Z

The Rakes - The Light From Your Mac tab

Bass Intro, repeated throughout
-------------------------------------------------------|
-------------------------------------------------------|
-------------------------------------------------------|
-------------------------------------------------------|
--8----10--12--10--8--10-------------------------------|
--------------------------10--8------------------------|

two parts to the riff repeated throughout the song

part 1:

-1313131313---101010---108-----------------------------|
-1313131513---101010---8 8-----------------------------|
-1414141414---101010---9 9-----------------------------|
-------------------------------------------------------|
-------------------------------------------------------|
-------------------------------------------------------| x4

part 2:

-------------------------------------------------------|
-------------------------------------------------------|
-------------------------------------------------------|
15----------1212----10---------------------------------|
15-----------------------------------------------------|
13(x8)---1010-----88-----------------------------------| x4
Tap to rate this tab
# A B C D E F G H I J K L M N O P Q R S T U V W X Y Z