Song name
# A B C D E F G H I J K L M N O P Q R S T U V W X Y Z

The Rakes - Just Got Paid But I Cant Get Laid tab

the crowd peaser that le rakes play at the end of their amazing set

intro
e---------------------------------------------|
b---------------------------------------------|
g---------------------------------------------|
d---------------------------------------------|
a-----------------------------99999999999999--|
e-10-10-10-10-10-10-10-10-10------------------|

main riff
e|-------------------------------------|
b|-------------------------------------|
g|-------------------------------------|
d|--------9-11--9----------------11----|
a|-9-12------------12-9-12-9-----------|
e|-------------------------------------|

just got paid but i cant get laid....
e---------------------------------------------|
b---------------------------------------------|
g---------------------------------------------|
d---------------------------------------------|
a-12-12-12-12-12-12---16-16-16-16-16-16-------|
e-10-10-10-10-10-10---14-14-14-14-14-14-------|

tabbed by stu.f  www.myspace.com/stu_f      therakes.co.uk forum
Tap to rate this tab
# A B C D E F G H I J K L M N O P Q R S T U V W X Y Z