Guitaretab - guitar tabs
Song name
# A B C D E F G H I J K L M N O P Q R S T U V W X Y Z

The Rakes - We Are All Animals tab

top choon again,best album this year? bloody well is!


inro with drums

bass line
e---------------------|
b---------------------|
g---------------------|
d---------------------|
a---------------------|
E-5-5-5-5-5-5-5-5-3-5-|

 verse
e--------------------------------------------------------------|
b--------------------------------------------------------------|
g-5-5-5-5-5---7-7---5-5-5----10-10-10-10-10---12-12---10-10-10-|
d-7-7-7-7-7---7-7---7-7-7----10-10-10-10-10---10-10---10-10-10-|
a--------------------------------------------------------------|
E--------------------------------------------------------------|
[ Tab from: http://www.guitaretab.com/t/the-rakes/64643.html ]
"we are all animals, we are all animals" (just before the chorus)
e-----------------------------------------------------------------|
b-----------------------------------------------------------------|
g-5-5-5-5-5---7-7---5-5-5----5-5-5-5-5-5----7-7---5-5-5-----------|
d-7-7-7-7-7---7-7---7-7-7----7-7-7-7-7-7----7-7---7-7-7-----------|
a-----------------------------------------------------------------|
E-----------------------------------------------------------------|


chorus-"when our instincts are egging us on" bit

e----------------------------------------------------------------|
b----------------------------------------------------------------|
g-12-12-12-12-12-12-12-12---9-9-9-9-9---7-7-7-7-7-7-7-7-7-7-7-7--|
d-12-12-12-12-12-12-12-12---9-9-9-9-9---9-9-9-9-9-9-9-9-9-9-9-9--|
a----------------------------------------------------------------|
E----------------------------------------------------------------|


thats pretty much the whole song apart from two parts seen below

weird little solo at 2.19
e--------------5-8-8-|
b-5-7-5--------------|
g-------7-5-7--------|
d--------------------| repeat 4 tmes
a--------------------|
E--------------------|

then back into the chorus


the next solo thing is at 3.01
e----------------------------|
b----------------------------|
g----------------------------|
d-5-5-5-5-----5-5-5-5---7-7--| x4
a---------5-5----------------|
E----------------------------|

after this its the verse again and the song ends on Am

tabbed by stu

www.myspace.com/stu_f

cribs/rakes/boysintheband forums
Related for We Are All Animals tab