Song name
# A B C D E F G H I J K L M N O P Q R S T U V W X Y Z

The Rakes - World Was A Mess But His Hair Was Perfect tab

the main riff:
e-------------------------------------------------|
b---------9----------9---------9----------9-------|
g-9-9---9----9-9---9---9-9---9----9-9---9---------|
d-----11---------11-------11---------11-----------|
a-------------------------------------------------|
E-------------------------------------------------|

e------------------------------------------------------------|
b--------------------------------------9-12-12-9-7-7-5-5-----|
g-------9-11-9-------9-11-9-------9-11-----------------------|
d-11-11--------11-11--------11-11----------------------------|
a------------------------------------------------------------|
E------------------------------------------------------------|

x
If you have any suggestions or comments just e-mail me at elinemoormann@hotmail.com 
Tap to rate this tab
 
# A B C D E F G H I J K L M N O P Q R S T U V W X Y Z