Song name
# A B C D E F G H I J K L M N O P Q R S T U V W X Y Z

The Rakes - When Tom Cruise Cries tab

My first tab so its probably not going to be perfect.
Work out the timing, the gaps in the tab are just to show the difference between parts,
fairly easy

Intro (Doo doo do bit)


E-----------------------------------------|
B-----------------------------------------|
G-----------------------------------------|
D----11-(7x)--13--11--9--6-------6--8--9--|
A-----------------------------------------|
E-----------------------------------------|

(First part x2 , then play the 6-8-9 and go back to the beginning again, this happens a
times)


Verse

E--------------------------------------|
B--------------------------------------|
G--------------------------------------|
D--------------------------------------|
A----9--------9----------------7-------|
E--------6--------6----------------4---|

Does this a few times over the bassline, theres also some muted strings been hit in the background)

Chorus

E--------------------------------------|
B--------------------------------------|
G-------------------8-------11---------|
D-----------9--------------------------|
A----9---------------------------------|
E--------------------------------------|

Solo
(This is played through twice, hold the final 9 on the second time of playing)


E--------------------------------------|
B--------------------------------------|
G--11---8---6---8----------------------|
D-------------------6------------------|    X2
A--------------------------------------|
E--------------------------------------|

E-------------------------------------------------|
B-------------------------------------------------|
G----11---8---6---8--8888--6--8-------------------|
D--------------------------------6----------6-8-9-|
A-------------------------------------------------|
E-------------------------------------------------|

As the song fades out palm mute the notes that were played through the verse:

A 9----7--|
E 6----4--|

Im not sure what chords are played at the end of the song but they arent to hard to
out if you know other rakes songs, just mess about

Nathan
Tap to rate this tab
# A B C D E F G H I J K L M N O P Q R S T U V W X Y Z