The Ready Set - Love Like Woe tab

-------------------------------------------------------------------------------
			     Love Like Woe - The Ready Set
-------------------------------------------------------------------------------
Tabbed by:thebassboy86
Email:n/a

Tuning:standard
this is what i think the acoustic part for the verses is.
e|-------------------------------------------------------------------------|
B|-------------------------------------------------------------------------|
G|--------------------------6-6/--7-7--------------------------------------|
D|--------7-7-7-7--4-4-4-4--6-6/--7-7--------------------------------------|
A|--------7-7-7-7--4-4-4-4--4-4/--5-5--------------------------------------|
E|--------5-5-5-5--2-2-2-2-------------------------------------------------|

just repeat that through the whole song.



************************************

| /   slide up
| \   slide down
| h   hammer-on
| p   pull-off
| ~   vibrato
| +   harmonic
| x   Mute note
| b   Bend
| pb  Pre-bend
| br  Bend release
| pbr Pre-bend release
| brb Bend release bend

************************************
Tap to rate this tab
 
# A B C D E F G H I J K L M N O P Q R S T U V W X Y Z