Song name
# A B C D E F G H I J K L M N O P Q R S T U V W X Y Z

The Reason - All I Ever Wanted tab

The Reason - All I Ever Wanted

Verse:
e|-----------------------------------------------------|
b|-----------------------------------------------------|
G|--2----------2---------------------------------------|
D|--2--4--6----2--4--3----4--6--4--6-------------------|
A|--1--4--6----1--4--3----4--6--4--6-------------------|
D|-----2--4-------2--1----2--4--2--4-------------------|

e|-----------------------------------------------------|
b|-----------------------------------------------------|
G|--2----------2---------------------------------------|
D|--2--4--6----2--4--3----4--6--4--3-------------------|
A|--1--4--6----1--4--3----4--6--4--3-------------------|
D|-----2--4-------2--1----2--4--2--1-------------------|

Chorus:
e|-----------------------------------------------------|
b|-----------------------------------------------------|
G|-----------------------------------------------------|  
D|-----8--6--11---4--11--6-----------------------------|  2x
A|-----8--6--11---4--11--6-----------------------------| 
D|-----6--4--9----2--9---4-----------------------------|

After Chorus:
e|-----------------------------------------------------|
b|-----------------------------------------------------|
G|-----------------------------------------------------|
D|---4--6--4--3----------------------------------------|
A|---4--6--4--3----------------------------------------|
D|---2--4--2--1----------------------------------------|

Verse 1x
Chorus 2x
After Chorus 1x

Bridge:
e|-----------------------------------------------------|
b|-----------------------------------------------------|
G|-----------------------------------------------------|
D|---8--11--4--6---------------------------------------| 12x
A|---8--11--4--6---------------------------------------|
D|---6--9---2--4---------------------------------------|

After Chorus 1x
Chorus 1x (bass)
After Chorus 1x
Chorus 2x
After Chorus 1x

End:
e|-----------------------------------------------------|
b|-----------------------------------------------------|
G|-----------------------------------------------------|
D|----3------------------------------------------------|
A|----3------------------------------------------------|
D|----1------------------------------------------------|


Any Questions: natty_tbs@hotmail.com
Tap to rate this tab
# A B C D E F G H I J K L M N O P Q R S T U V W X Y Z