Song name
# A B C D E F G H I J K L M N O P Q R S T U V W X Y Z

The Reason - Subways In Pittsburgh tab

--------------------------------------------------------------------------
                     SUBWAYS IN PITTSBURGH - the reason
--------------------------------------------------------------------------

Band: The Reason
Website: http://www.thereason.ca/
Album: Ravenna (Smallman Records, 2004)
Song: Subways in Pittsburgh

Tabbed by Kyle T.
Contact: pants_me@hotmail.com
Site: www.wqhosting.com/~ohpkyle/

Dropped-D tuning (DADGbe)

Legend:

  .   - Palm mute                            o     - Repeat bar
  x   - Dead note                            o
  _   - Let ring                           _______
  %   - Rest                              |1,2...  - Endings for repeats
  /   - Slide up                             #     - Harmonic
  \   - Slide down                           Nx    - Number of repeats
  h   - Hammer on                            v     - Vibrato
  b   - bend                                 *     - Staccato
  r   - release                              n     - Bar number
 (x)  - Note tied over from previous bar     ^     - Pitch harmonic

                             NOTES
  W   - Whole note                           H     - Half note
  Q   - Quarter note                         E     - Eighth note
  S   - Sixteenth note                       +     - Note plus half


---

Note:   Timing is not exact. I'm slowly realizing the error of my tab set-up,
hence the addition of the 'NOTES' section of the legend. I'm working on
finding some way to be as precise as possible.
        During the outro there's a lead riff that's being played, and I don't
think I figured it out exactly; and sometimes during the chorus the E5-F#5
section of the first phrase has more strums.
	There is a high lead part being played by a third guitar for eight
bars at the end of the song. I can't figure it out.
	Someone introduced me to this band with this song almost a year ago.
You probably won't see this, but this is for you. Thanks for the great song!

---

Chords Used:
         D           E5  F#5   G5     A5        B5
e|---------------------------------------------------|
b|---------------------------------------------------|
G|-------7-----19------------------------2---------4-|
D|-0-and-7-and-19----2----4----5----7-or-2----9-or-4-|
A|-0-----5-----17----2----4----5----7----0----9----2-|
D|-0-----------------2----4----5----7---------9------|


                                                                 Key - D
                                                               Tempo - 117
Intro (0:00-0:16):

4/4
e|-----------------|-----------------|-----------------|-----------------|
b|-----------------|-----------------|-----------------|-----------------|
G|o----------------|-----------------|-----------------|----------------o|
D|o00--0-----%-----|-99--9-----%-----|-77--7----%------|-55--5-5-55--5-5o|
A|-00--0-----------|-99--9-----------|-77--7-----------|-55--5-5-55--5-5-|
D|-00--0-----------|-99--9-----------|-77--7-----------|-55--5-5-55--5-5-|
 |                                                                       |
 |                                                                       |
e|-----------------|-----------------|-----------------|-----------------|
b|-----------------|-----------------|-----------------|-----------------|
G|o---------9-7----|----------9-7----|----------9-7----|----------------o|
D|o00--0--7-----7--|-99--9--7-----7--|-77--7--7-----7--|-55--5-5-55--5-5o|
A|-----------------|-----------------|-----------------|-55--5-5-55--5-5-|
D|-----------------|-----------------|-----------------|-55--5-5-55--5-5-|


Verse (0:16-0:49):

e|-----------------|-----------------|-----------------|-----------------|
b|-----------------|-----------------|-----------------|-----------------|
G|o----------------|-----------------|-----------------|----------------o|
D|o00--0-0----%----|-99--9-9-9--%----|-77--7-7-7---%---|-55--5-5-55--5-5o|
A|-00--0-0---------|-99--9-9-9-------|-77--7-7-7-------|-55--5-5-55--5-5-|
D|-00--0-0---------|-99--9-9-9-------|-77--7-7-7-------|-55--5-5-55--5-5-|
 |                                                                       |
 |                                                                       |
e|-----------------|-----------------|-----------------|-----------------|
b|-----------------|-----------------|-----------------|-----------------|
G|o----------------|-----------------|-----------------|----------------o|
D|o00--0-0----%----|-99--9-9-9--%----|-77--7-7-7---%---|-55--5-5-55--5-5o|
A|-00--0-0---------|-99--9-9-9-------|-77--7-7-7-------|-55--5-5-55--5-5-|
D|-00--0-0---------|-99--9-9-9-------|-77--7-7-7-------|-55--5-5-55--5-5-|


e|-----------------|-----------------|-----------------|-----------------|
b|-----------------|-----------------|-----------------|-----------------|
G|-----------------|-----------------|-----------------|-----------------|
D|-00--0-0----%----|-99--9-9-9--%----|-77--7-7-7---%---|-55--5-5-55--5-5-|
A|-00--0-0---------|-99--9-9-9-------|-77--7-7-7-------|-55--5-5-55--5-5-|
D|-00--0-0---------|-99--9-9-9-------|-77--7-7-7-------|-55--5-5-55--5-5-|
 |                                                                       |
 |                                                                       |
e|-----------------|-----------------|-----------------|-----------------|
b|-----------------|-----------------|-----------------|-----------------|
G|-77--7-7-6---7---|---------6---7---|---------6---7---|-9999999-6---7---|
D|-----------------|------%----------|------%----------|-----------------|
A|-55--5-5-4---5---|---------4---5---|---------4---5---|-7777777-4---5---|
D|-----------------|-----------------|-----------------|-----------------|


e|-----------------|-----------------|-----------------|-----------------|
b|-----------------|-----------------|-----------------|-----------------|
G|-----------------|-----------------|-----------------|-----------------|
D|-00--0-0----%----|-99--9-9-9--%----|-77--7-7-7---%---|-55--5-5-55--5-5-|
A|-00--0-0---------|-99--9-9-9-------|-77--7-7-7-------|-55--5-5-55--5-5-|
D|-00--0-0---------|-99--9-9-9-------|-77--7-7-7-------|-55--5-5-55--5-5-|
 |                                                                       |
 |                                                                       |
e|-----------------|-----------------|-----------------|-----------------|
b|-----------------|-----------------|-----------------|-----------------|
G|-----------------|-----------------|-----------------|-----------------|
D|-00--0-0----%----|-99--9-9-9--%----|-77--7-7-7---%---|-55--5-5-55--5-5-|
A|-00--0-0---------|-99--9-9-9-------|-77--7-7-7-------|-55--5-5-55--5-5-|
D|-00--0-0---------|-99--9-9-9-------|-77--7-7-7-------|-55--5-5-55--5-5-|

   So tense, so strong. Your subtleties are solemn spoken and seldom. So
   this beat will keep going on whether you pass out or I'm drunk in
   Bristow. I'm sorry, but where were you when all we had was top soil?
   Friends in need, well just take heed and knock it all down. I'll build
   it up.


Post-verse (0:49-0:57):

e|-----------------|-----------------|-----------------|-----------------|
b|-----------------|-----------------|-----------------|-----------------|
G|-----------------|-----------------|-----------------|-----------------|
D|-7-7-7-7-7-7-7-7-|-5-5-5-5-5-5-5-5-|-7-7-7-7-7-7-7-7-|-5-5-5-5-777-444-|
A|-7-7-7-7-7-7-7-7-|-5-5-5-5-5-5-5-5-|-7-7-7-7-7-7-7-7-|-5-5-5-5-777-444-|
D|-7-7-7-7-7-7-7-7-|-5-5-5-5-5-5-5-5-|-7-7-7-7-7-7-7-7-|-5-5-5-5-777-444-|
 |                                                                   ... |
 |                                                                       |
e|-----------------|-----------------|-----------------|-----------------|
b|----10___________|-----8___________|----10___________|-----8__---------|
G|-----9___________|-----7___________|-----9___________|-----7__---------|
D|-7-7-7-7-7-7-7-7-|-5-5-5-5-5-5-5-5-|-7-7-7-7-7-7-7-7-|-5-5-5-5-777-444-|
A|-7-7-7-7-7-7-7-7-|-5-5-5-5-5-5-5-5-|-7-7-7-7-7-7-7-7-|-5-5-5-5-777-444-|
D|-7-7-7-7-7-7-7-7-|-5-5-5-5-5-5-5-5-|-7-7-7-7-7-7-7-7-|-5-5-5-5-777-444-|
                                                                     ...

   Sometime you'll see this. Somehow you'll know. Someday someone will
   say, "I told you so."


Chorus (0:57-1:22):

e|-----------------|-----------------|-----------------|-----------------|
b|-----------------|-----------------|-----------------|-----------------|
G|o----------------|-7-7-7-7-7-7-7-7-|-----------------|----------------o|
D|o9-9-9-9-9-9-9-9-|-7-7-7-7-7-7-7-7-|-5-5-5-5-5-5-5-5-|-2---2---4---4--o|
A|-9-9-9-9-9-9-9-9-|-5-5-5-5-5-5-5-5-|-5-5-5-5-5-5-5-5-|-2---2---4---4---|
D|-9-9-9-9-9-9-9-9-|-----------------|-5-5-5-5-5-5-5-5-|-2---2---4---4---|
 |                                                                       |
 |                                                                       |
e|-----------------|-----------------|-----------------|-----------------|
b|-----------------|-----------------|-----------------|-----------------|
G|o----------------|-7-7-7-7-7-7-7-7-|-----------------|----------------o|
D|o9-9-9-9-9-9-9-9-|-7-7-7-7-7-7-7-7-|-5-5-5-5-5-5-5-5-|-2---2---4---4--o|
A|-9-9-9-9-9-9-9-9-|-5-5-5-5-5-5-5-5-|-5-5-5-5-5-5-5-5-|-2---2---4---4---|
D|-9-9-9-9-9-9-9-9-|-----------------|-5-5-5-5-5-5-5-5-|-2---2---4---4---|


e|-----------------|-----------------|-----------------|-----------------|
b|-----------------|-----------------|-----------------|-----------------|
G|-----------------|-----------------|-----------------|-----------------|
D|-5-5-5-5-5-5-5-5-|-7-7-7-7-7-7-7-7-|-5-5-5-5-5-5-5-5-|-7-7-7-7-7-7-7-7-|
A|-5-5-5-5-5-5-5-5-|-7-7-7-7-7-7-7-7-|-5-5-5-5-5-5-5-5-|-7-7-7-7-7-7-7-7-|
D|-5-5-5-5-5-5-5-5-|-7-7-7-7-7-7-7-7-|-5-5-5-5-5-5-5-5-|-7-7-7-7-7-7-7-7-|
 |                                                                       |
 |                                                                       |
e|-----------------|-----------------|-----------------|-----------------|
b|-------8_________|------10_________|-------8_________|------10_________|
G|-------7_________|-------9_________|-------7_________|-------9_________|
D|-5-5-5-5-5-5-5-5-|-7-7-7-7-7-7-7-7-|-5-5-5-5-5-5-5-5-|-7-7-7-7-7-7-7-7-|
A|-5-5-5-5-5-5-5-5-|-7-7-7-7-7-7-7-7-|-5-5-5-5-5-5-5-5-|-7-7-7-7-7-7-7-7-|
D|-5-5-5-5-5-5-5-5-|-7-7-7-7-7-7-7-7-|-5-5-5-5-5-5-5-5-|-7-7-7-7-7-7-7-7-|

   Is this what you, is this what you believe? Is this what you wanted to
   receive? So you can learn how to think properly, when logic and reason
   shall repeat? Is this what you, is this what you believe? Is this what
   you, is this what you believe?


Verse 2 (1:22-1:54):

                                                        _________________
                                                       |1.
e|-----------------|-----------------|-----------------|-----------------|
b|-----------------|-----------------|-----------------|-----------------|
G|o----------------|-----------------|-----------------|----------------o|
D|o0---------------|-9---------------|-7---------------|-5--------------o|
A|-0-0000000000000-|-9-9999999999999-|-7-7777777777777-|-5-5555555555555-|
D|-0-0000000000000-|-9-9999999999999-|-7-7777777777777-|-5-5555555555555-|
 |   .............     .............     .............     ............. |
 |                                                                       |
e|-----------------|-----------------|-----------------|-----------------|
b|-----------------|-----------------|-----------------|-----------------|
G|o7---------------|-----------------|-----------------|----------------o|
D|o7-7777777777777-|-9---------------|-7---------------|-5-------5------o|
A|-5-5555555555555-|-9-9999999999999-|-7-7777777777777-|-5-5555555-55555-|
D|-0-0000000000000-|-9-9999999999999-|-7-7777777777777-|-5-5555555-55555-|
     .............     .............     .............     ......  .....

e|-----------------|
b|-----------------|
G|-----------------|
D|-5-5-5-5-5-5-5-5-|
A|-5-5-5-5-5-5-5-5-|
D|-5-5-5-5-5-5-5-5-|
 |                 |
 |                 |
e|-----------------|
b|-----------------|
G|-----------------|
D|-5-5-5-5-5-5-5-5-|
A|-5-5-5-5-5-5-5-5-|
D|-5-5-5-5-5-5-5-5-|


e|-----------------|-----------------|-----------------|-----------------|
b|-----------------|-----------------|-----------------|-----------------|
G|-----------------|-----------------|-----------------|-----------------|
D|-00--0-0----%----|-99--9-9-9--%----|-77--7-7-7---%---|-55--5-5-55--5-5-|
A|-00--0-0---------|-99--9-9-9-------|-77--7-7-7-------|-55--5-5-55--5-5-|
D|-00--0-0---------|-99--9-9-9-------|-77--7-7-7-------|-55--5-5-55--5-5-|
 |                                                                       |
 |                                                                       |
e|-----------------|-----------------|-----------------|-----------------|
b|-----------------|-----------------|-----------------|-----------------|
G|-77--7-7-6---7---|---------6---7---|---------6---7---|-9999999-6---7---|
D|-----------------|------%----------|------%----------|-----------------|
A|-55--5-5-4---5---|---------4---5---|---------4---5---|-7777777-4---5---|
D|-----------------|-----------------|-----------------|-----------------|

e|-----------------|-----------------|-----------------|-----------------|
b|-----------------|-----------------|-----------------|-----------------|
G|-----------------|-----------------|-----------------|-----------------|
D|-0---------------|-9---------------|-7---------------|-5-5-5-5-777-444-|
A|-0-0000000000000-|-9-9999999999999-|-7-7777777777777-|-5-5-5-5-777-444-|
D|-0-0000000000000-|-9-9999999999999-|-7-7777777777777-|-5-5-5-5-777-444-|
 |   .............     .............     .............                   |
 |                                                                       |
e|-----------------|-----------------|-----------------|-----------------|
b|-----------------|-----------------|-----------------|-----------------|
G|-7---------------|-----------------|-----------------|-----------------|
D|-7-7777777777777-|-9---------------|-7---------------|-5-5-5-5-777-444-|
A|-5-5555555555555-|-9-9999999999999-|-7-7777777777777-|-5-5-5-5-777-444-|
D|-0-0000000000000-|-9-9999999999999-|-7-7777777777777-|-5-5-5-5-777-444-|
     .............     .............     .............

   We've been lucky so far, but Sara warned me about drives like these,
   they're so... I know who my friends are, know my place in this spectrum:
   where my seats are. I'm sorry, there are certain things I don't discuss
  at subways from Pittsburgh through- through Buffalo. This ride could
   last forever.


Chorus (1:54-2:19):

e|-----------------|-----------------|-----------------|-----------------|
b|-----------------|-----------------|-----------------|-----------------|
G|o----------------|-7-7-7-7-7-7-7-7-|-----------------|----------------o|
D|o9-9-9-9-9-9-9-9-|-7-7-7-7-7-7-7-7-|-5-5-5-5-5-5-5-5-|-2---2---4---4--o|
A|-9-9-9-9-9-9-9-9-|-5-5-5-5-5-5-5-5-|-5-5-5-5-5-5-5-5-|-2---2---4---4---|
D|-9-9-9-9-9-9-9-9-|-----------------|-5-5-5-5-5-5-5-5-|-2---2---4---4---|
 |                                                                       |
 |                                                                       |
e|-----------------|-----------------|-----------------|-----------------|
b|-----------------|-----------------|-----------------|-----------------|
G|o----------------|-7-7-7-7-7-7-7-7-|-----------------|----------------o|
D|o9-9-9-9-9-9-9-9-|-7-7-7-7-7-7-7-7-|-5-5-5-5-5-5-5-5-|-2---2---4---4--o|
A|-9-9-9-9-9-9-9-9-|-5-5-5-5-5-5-5-5-|-5-5-5-5-5-5-5-5-|-2---2---4---4---|
D|-9-9-9-9-9-9-9-9-|-----------------|-5-5-5-5-5-5-5-5-|-2---2---4---4---|


e|-----------------|-----------------|-----------------|-----------------|
b|-----------------|-----------------|-----------------|-----------------|
G|-----------------|-----------------|-----------------|-----------------|
D|-5-5-5-5-5-5-5-5-|-7-7-7-7-7-7-7-7-|-5-5-5-5-5-5-5-5-|-7-7-7-7-7-7-7777|
A|-5-5-5-5-5-5-5-5-|-7-7-7-7-7-7-7-7-|-5-5-5-5-5-5-5-5-|-7-7-7-7-7-7-7777|
D|-5-5-5-5-5-5-5-5-|-7-7-7-7-7-7-7-7-|-5-5-5-5-5-5-5-5-|-7-7-7-7-7-7-7777|
 |                                                                    ...|
 |                                                                       |
e|-----------------|-----------------|-----------------|-----------------|
b|-------8_________|------10_________|-------8_________|------10____-----|
G|-------7_________|-------9_________|-------7_________|-------9____-----|
D|-5-5-5-5-5-5-5-5-|-7-7-7-7-7-7-7-7-|-5-5-5-5-5-5-5-5-|-7-7-7-7-7-7-7777|
A|-5-5-5-5-5-5-5-5-|-7-7-7-7-7-7-7-7-|-5-5-5-5-5-5-5-5-|-7-7-7-7-7-7-7777|
D|-5-5-5-5-5-5-5-5-|-7-7-7-7-7-7-7-7-|-5-5-5-5-5-5-5-5-|-7-7-7-7-7-7-7777|
                                                                      ...

   Is this what you, is this what you believe? Is this what you wanted to
   receive? So you can learn how to think properly, when logic and reason
   shall repeat. Is this what you, is this what you believe? Is this what
   you, is this what you believe?


Interlude (2:19-2:51):

e|-----------------|-----------------|-----------------|-----------------|
b|-----------------|-----------------|-----------------|-----------------|
G|-7-7-7--------777|-----------------|-----------------|--------------777|
D|-7-7-7---%----777|-9-9-9---%----999|-7-7-7---%----777|-5-5-5-5-5-5-5777|
A|-5-5-5--------555|-9-9-9--------999|-7-7-7--------777|-5-5-5-5-5-5-5555|
D|-----------------|-9-9-9--------999|-7-7-7--------777|-5-5-5-5-5-5-5---|
 | . . .        ...  . . .        ...  . . .        ...  . . . . . . ....|
 |                                                                       |
e|-----------------|-----------------|-----------------|-----------------|
b|-----------------|-----------------|-----------------|-----------------|
G|-7-7-7--------777|-----------------|-----------------|-7---9--11---9-7-|
D|-7-7-7---%----777|-9-9-9---%----999|-7-7-7---%----777|-7---9--11---9-7-|
A|-5-5-5--------555|-9-9-9--------999|-7-7-7--------777|-5---7---9---7-5-|
D|-----------------|-9-9-9--------999|-7-7-7--------777|---0---0---0-----|
   . . .        ...  . . .        ...  . . .        ...    .   .   .

e|-----------------|-----------------|-----------------|-----------------|
b|-----------------|-----------------|-----------------|-----------------|
G|-7-7-7--------777|-----------------|-----------------|-----------------|
D|-7-7-7---%----777|-9-9-9---%----999|-7-7-7---%----777|-5-5-5-5-5-5-5-5-|
A|-5-5-5--------555|-9-9-9--------999|-7-7-7--------777|-5-5-5-5-5-5-5-5-|
D|-----------------|-9-9-9--------999|-7-7-7--------777|-5-5-5-5-5-5-5-5-|
 | . . .        ...  . . .        ...  . . .        ...  . . . . . . . . |
 |                                                                       |
e|-----------------|-----------------|-----------------|-----------------|
b|-----------------|-----------------|-----------------|-----------------|
G|-7-7-7--------777|-----------------|-----------------|-----------------|
D|-7-7-7---%----777|-9-9-9---%----999|-7-7-7---%----777|-5-5-5-5-5-5-5-5-|
A|-5-5-5--------555|-9-9-9--------999|-7-7-7--------777|-5-5-5-5-5-5-5-5-|
D|-----------------|-9-9-9--------999|-7-7-7--------777|-5-5-5-5-5-5-5-5-|
 | . . .        ...  . . .        ...  . . .        ...  . . . . . . . . |
 |                                                                       |
e|-----------------|-----------------|-----------------|-----------------|
b|-----------------|-----------------|-----------------|-----------------|
G|o---------9-7----|----------9-7----|----------9-7----|----------------o|
D|o00--0--7-----7--|-99--9--7-----7--|-77--7--7-----7--|--------%-------o|
A|-----------------|-----------------|-----------------|-----------------|
D|-----------------|-----------------|-----------------|-----------------|


e|-----------------|-----------------|-----------------|-----------------|
b|-----------------|-----------------|-----------------|-----------------|
G|-7-7-7--------777|-----------------|-----------------|-----------------|
D|-7-7-7---%----777|-9-9-9---%----999|-7-7-7---%----777|-5-5-5-5-5-5-5-5-|
A|-5-5-5--------555|-9-9-9--------999|-7-7-7--------777|-5-5-5-5-5-5-5-5-|
D|-----------------|-9-9-9--------999|-7-7-7--------777|-5-5-5-5-5-5-5-5-|
 |                                                                       |
 |                                                                       |
e|-----------------|-----------------|-----------------|-----------------|
b|-----------------|-----------------|-----------------|-----------------|
G|-7-7-7--------777|-----------------|-----------------|-----------------|
D|-7-7-7---%----777|-9-9-9---%----999|-7-7-7---%----777|-5-5-5-5-5-5-5-5-|
A|-5-5-5--------555|-9-9-9--------999|-7-7-7--------777|-5-5-5-5-5-5-5-5-|
D|-----------------|-9-9-9--------999|-7-7-7--------777|-5-5-5-5-5-5-5-5-|


e|-----------------|-----------------|-----------------|-----------------|
b|-----------------|-----------------|-----------------|-----------------|
G|-7-7-7--------777|-----------------|-----------------|-----------------|
D|-7-7-7---%----777|-9-9-9---9----999|-7-7-7---%----777|-5-5-5-5-5---5-5-|
A|-5-5-5--------555|-9-9-9-%-9--%-999|-7-7-7--------777|-5-5-5-5-5---5-5-|
D|-----------------|-9-9-9---9----999|-7-7-7--------777|-5-5-5-5-5---5-5-|
 |                                                               .   . . |
 |                                                                       |
e|-----------------|-----------------|-----------------|-----------------|
b|-----------------|-----------------|-----------------|-----------------|
G|-7-7-7--------777|-----------------|-----------------|-----------------|
D|-7-7-7---%----777|-9-9-9---9----999|-7-7-7---%----777|-5-5-5-5-5---5-5-|
A|-5-5-5--------555|-9-9-9-%-9--%-999|-7-7-7--------777|-5-5-5-5-5---5-5-|
D|-----------------|-9-9-9---9----999|-7-7-7--------777|-5-5-5-5-5---5-5-|
                                                                 .   . .

   I'm sorry, but where were you when all we had was top-soil? And so knock
   it down, I'll smile and build it right back up. Come and sever. Oh!


Post-verse (2:52-3:04):

e|-----------------|-----------------|-----------------|-----------------|
b|-----------------|-----------------|-----------------|-----------------|
G|-----------------|-----------------|-----------------|-----------------|
D|-7-7-7-7-7-7-7-7-|-5-5-5-5-5-5-5-5-|-7-7-7-7-7-7-7-7-|-5-5-5-5-7-7-4-4-|
A|-7-7-7-7-7-7-7-7-|-5-5-5-5-5-5-5-5-|-7-7-7-7-7-7-7-7-|-5-5-5-5-7-7-4-4-|
D|-7-7-7-7-7-7-7-7-|-5-5-5-5-5-5-5-5-|-7-7-7-7-7-7-7-7-|-5-5-5-5-7-7-4-4-|
 |                                                               . . . . |
 |                                                                       |
e|-----------------|-----------------|-----------------|-----------------|
b|----10___________|-----8___________|----10___________|-----8__---------|
G|-----9___________|-----7___________|-----9___________|-----7__---------|
D|-7-7-7-7-7-7-7-7-|-5-5-5-5-5-5-5-5-|-7-7-7-7-7-7-7-7-|-5-5-5-5-7-7-4-4-|
A|-7-7-7-7-7-7-7-7-|-5-5-5-5-5-5-5-5-|-7-7-7-7-7-7-7-7-|-5-5-5-5-7-7-4-4-|
D|-7-7-7-7-7-7-7-7-|-5-5-5-5-5-5-5-5-|-7-7-7-7-7-7-7-7-|-5-5-5-5-7-7-4-4-|
                                                                 . . . .

e|-----------------|-----------------|
b|-----------------|-----------------|
G|-----------------|-----------------|
D|--------%--------|--------%--------|
A|-----------------|-----------------|
D|-----------------|-----------------|
 |                                   |
 |                                   |
e|-----------------|-----------------|
b|-----------------|-----------------|
G|-----------------|-----------------|
D|--------%--------|--------%--------|
A|-----------------|-----------------|
D|-----------------|-----------------|

   Sometime you'll see this. Somehow you'll know. Someday someone will
   say, "I told you so."


Outro (3:04-3:47):

e|-----------------|-----------------|-----------------|-----------------|
b|-----------------|-----------------|-----------------|-----------------|
G|o----------------|-7-------7---7---|-----------------|----------------o|
D|o9-------9---9---|-7-------7---7---|-5-------5---5---|-2-2-2-2-4-4-4-4o|
A|-9-------9---9---|-5-------5---5---|-5-------5---5---|-2-2-2-2-4-4-4-4-|
D|-9-------9---9---|-----------------|-5-------5---5---|-2-2-2-2-4-4-4-4-|
 |                                                                       |
 |                                                                       |
e|-----------------|-----------------|-----------------|-----------------|
b|-----------------|-----------------|-----------------|-----------------|
G|o----------------|-7-------7---7---|-----------------|----------------o|
D|o9-------9---9---|-7-------7---7---|-5-------5---5---|-2-2-2-2-4-4-4-4o|
A|-9-------9---9---|-5-------5---5---|-5-------5---5---|-2-2-2-2-4-4-4-4-|
D|-9-------9---9---|-----------------|-5-------5---5---|-2-2-2-2-4-4-4-4-|


e|-----------------|-----------------|-----------------|-----------------|
b|-----------------|-----------------|-----------------|-----------------|
G|-----------------|-----------------|-----------------|-----------------|
D|-5-------5---5--5|-7-------7---7--7|-5-------5---5--5|-7-------7---7--7|
A|-5-------5---5--5|-7-------7---7--7|-5-------5---5--5|-7-------7---7--7|
D|-5-------5---5--5|-7-------7---7--7|-5-------5---5--5|-7-------7---7--7|
 |                                                                       |
 |                                                                       |
e|-----------------|-----------------|-----------------|-----------------|
b|-----------------|-----------------|-----------------|-----------------|
G|----------9-7----|----------9-7----|----------9-7----|----------9-7----|
D|-55--5--7-----7--|-77--7--7-----7--|-55--5--7-----7--|-77--7--7-----7--|
A|-----------------|-----------------|-----------------|-----------------|
D|-----------------|-----------------|-----------------|-----------------|


e|-----------------|-----------------|-----------------|-----------------|
b|-----------------|-----------------|-----------------|-----------------|
G|-----------------|-----------------|-----------------|-----------------|
D|-5-------5---5--5|-7-------7---7--7|-5-------5---5--5|-7-------7---7--7|
A|-5-------5---5--5|-7-------7---7--7|-5-------5---5--5|-7-------7---7--7|
D|-5-------5---5--5|-7-------7---7--7|-5-------5---5--5|-7-------7---7--7|
 |                                                                       |
 |                                                                       |
e|-----------------|-----------------|-----------------|-----------------|
b|-----------------|-----------------|-----------------|-----------------|
G|----------9-7----|----------9-7----|----------9-7----|----------9-7----|
D|-55--5--7-----7--|-77--7--7-----7--|-55--5--7-----7--|-77--7--7-----7--|
A|-----------------|-----------------|-----------------|-----------------|
D|-----------------|-----------------|-----------------|-----------------|
 |                                                                       |
 |                                                                       |
e|-----------------|-----------------|-----------------|-----------------|
b|-----------------|-----------------|-----------------|-----------------|
G|-----------------|-----------------|-----------------|-----------------|
D|-----------------|-----------------|-----------------|-----------------|
A|-----------------|-----------------|-----------------|-----------------|
D|-----------------|-----------------|-----------------|-----------------|


e|-----------------|-----------------|-----------------|-----------------|
b|-----------------|-----------------|-----------------|-----------------|
G|-----------------|-----------------|-----------------|-----------------|
D|-5-------5---5--5|-7-------7---7--7|-5-------5---5--5|-7-------7---7--7|
A|-5-------5---5--5|-7-------7---7--7|-5-------5---5--5|-7-------7---7--7|
D|-5-------5---5--5|-7-------7---7--7|-5-------5---5--5|-7-------7---7--7|
 |                                                                       |
 |                                                                       |
e|-----------------|-----------------|-----------------|-----------------|
b|-----------------|-----------------|-----------------|-----------------|
G|----------9-7----|----------9-7----|----------9-7----|----------9-7----|
D|-55--5--7-----7--|-77--7--7-----7--|-55--5--7-----7--|-77--7--7-----7--|
A|-----------------|-----------------|-----------------|-----------------|
D|-----------------|-----------------|-----------------|-----------------|
 |                                                                       |
 |                                                                       |
e|-----------------|-----------------|-----------------|-----------------|
b|-----------------|-----------------|-----------------|-----------------|
G|-----------------|-----------------|-----------------|-----------------|
D|-----------------|-----------------|-----------------|-----------------|
A|-----------------|-----------------|-----------------|-----------------|
D|-----------------|-----------------|-----------------|-----------------|


5/4
e|-----------------|
b|-----------------|
G|-------7\--------|
D|-------7\----%---|
A|-------5\--------|
D|-00--0-----------|
 | ..  .           |
 |                 |
e|-----------------|
b|-----------------|
G|-------19\-------|
D|-------------%---|
A|-------17\-------|
D|-00--0-----------|
   ..  .

   Is this what you, is this what you believe? Is this what you wanted to
   receive? So you can learn how to think properly when logic and reason
   shall repeat? Is this what you, is this what you believe? Is this what
   you, is this what you believe? I'm sorry, but where were you when all
   we had was top-soil? Don't worry 'cause when you're back, I'll call you
   when it's over.
Tap to rate this tab
# A B C D E F G H I J K L M N O P Q R S T U V W X Y Z