Song name
# A B C D E F G H I J K L M N O P Q R S T U V W X Y Z

The Receiving End Of Sirens - War Of All Against All tab

 ((tap intro))
d|--------------------------------------------------------------|
a|--------------------------------------------------------------|
f|-----------------11p0-11p0-------------------11p0-11p0--------|
C|---------9p0-h9-----------12p0-h12------9p0-h9----------12p0--|
G|-7p0-h7-------------------------7p0-h7------------------------|
C|--------------------------------------------------------------|

d|--------------------------------------------------------------|
a|--------------------------------------------------------------|
f|-----------------11p0-11p0-------------------11p0-11p0--------|
C|-h12------5p0-h5-----------12p0-h12------5p0-h5----------12p0-|
G|-3p0-h3-------------------------3p0-h3------------------------|
C|--------------------------------------------------------------|
theres 2 other lead guitars but there sort of hidden with lots of effect,
and when theres lots of distortoin, bass, and drums...
one lead uses lots of notes on the 12 frets of the 3 high strings, 
and the other is just hitting random notes and bends...

 ((After Intro))
gtr 1
d|------------------------------|
a|------------------------------|
f|--------------5555---5555-777-|
C|222-2-2222-2--5555-5-5555-777-|
G|222-2-2222-2--3333-5-3333-555-|
C|222-2-2222-2-------5----------|

gtr 2
d|------------------------------|
a|------------------------------|
f|999---9999----5555---5555-777-|
C|----2------2--5555-5-5555-777-|
G|777-2-7777-2--3333-5-3333-555-|
C|----2------2-------5----------|

gtr 3
d|-----------------------------------------------------|
a|-----------------------------------------------------|
f|12121212-14141414-12-11/-12121212-14141414-16161616--|
C|-----------------------------------------------------|
G|10101010-12121212-10---9/10101010-12121212-14141414--|
C|-----------------------------------------------------|


"Look alive gentlemen""
Gtr 1
d|----------------------------|----------------------------------------------------|
a|----------------------------|----------------------------------------------------|
f|----------------------------|----------------------------------------------------|
C|-22-2--222-2-222-2--222-2-2-|-----7-5-4-5-----7-5-4-5-----7-5-4-5-----7-5-4-5----|
G|-22-2--222-2-222-2--222-2-2-|-3-3---------3-3---------0-0---------5-5------------|
C|-22-2--222-2-222-2--222-2-2-|--------------------------|

grt 2
d|----------------------------|----------------------------------------------------|
a|----------------------------|-8-8-7-8-----8-8-7-8-----8-8-7-8-----8-8-7-8--------|
f|----------------------------|---------7-9---------7-9---------7-9---------7-9----|
C|--------7-------------7-----|----------------------------------------------------|
G|-7-9-10---10-9-7-9-10---10-9|----------------------------------------------------|
C|----------------------------|----------------------------------------------------|
 Theres a Third guiat but hes using the high notes with efects...
 but it might look like this...

gtr 3
d|-12-12-12-12-12-12-12-12-12-|12--12--12---15--15--15---14--14--14--10--10--10---|
a|----------------------------|---------------------------------------------------|
f|----------------------------|---------------------------------------------------|
C|----------------------------|---------------------------------------------------|
G|----------------------------|---------------------------------------------------|
C|----------------------------|---------------------------------------------------|

and thats all i got...its just the intro parts...

Tap to rate this tab
 
# A B C D E F G H I J K L M N O P Q R S T U V W X Y Z