Song name
# A B C D E F G H I J K L M N O P Q R S T U V W X Y Z

The Receiving End Of Sirens - War Of All Against All tab

Song: The War of All Against All guitar intro
Band: The Receiving End of Sirens (TREOS)

Tabbed by: Derek

No one has tabbed this intro right, so here it is.

Clean guitar with lots of delay. Casey would play this by himself live.

All tapped with both the right and left hands. The right hand plays all the 12th fret
stuff and the left plays the rest (or the opposite if you're a lefty of course). Enjoy.

This 2x
D|------------(12)---------------(12)---------------------------(12)-----------------|
A|------------------------------------------(7)----------(8)-------------------------|
F|-------(12)---------------(12)-------------------(12)-----------------(7)--(12)----|
C|--------------------(9)------------------------------------------------------------|
G|--(7)------------------------------------------------------------------------------|
C|-----------------------------------------------------------------------------------|
     L     R    R      L      R    R          L      R    L       R      L     R
Then this 2x
D|------------(12)---------------(12)--------------------------(12)------------------|
A|------------------------------------------(7)----------(8)-------------------------|
F|-------(12)---------------(12)-------------------(12)-----------------(7)--(12)----|
C|--------------------(5)------------------------------------------------------------|
G|--(3)------------------------------------------------------------------------------|
C|-----------------------------------------------------------------------------------|
     L     R    R      L      R    R          L      R    L       R      L     R

Thats all.

Questions/Comments: djguitarboy23@gmail.com
Tap to rate this tab
 
# A B C D E F G H I J K L M N O P Q R S T U V W X Y Z