Guitaretab - guitar tabs
Song name
# A B C D E F G H I J K L M N O P Q R S T U V W X Y Z

The Receiving End Of Sirens - Planning A Prison Break tab

THE RECEIVING END OF SIRENS
BETWEEN THE HEART & THE SYNAPSE
TRACK 2 - "PLANNING A PRISON BREAK"


finally. i've been looking and looking and looking for
this tab, and i got so frustrated, and figured i'd give
it a shot at tabbing it myself.

this is the bare bones of what's going on in this song.
i'm sure there are way more things i could tab out, and
i might if i get around to it some more. i'm just giving
you guys the bare minimum and you can screw around with
all the other stuff yourselves. if you figure something
out and want to use my tab with what you figured out,
just give me credit & drop me an email. thanks!

						-- lundy
----------------------------|
-- turbo474 @ hotmail.com --|
----------------------------|

drop c tuning. figure out the rhythm yourself.

INTRO - GUITAR 1
d---------------------|-----------------|
a---------------------|-----------------|
f-10-10-----10-10-----|-9-9-----9-9-----|
c--x--x-0-0--x--x-0-0-|-x-x-0-0-x-x-0-0-|
g--8--8-0-0--8--8-0-0-|-7-7-0-0-7-7-0-0-|
c-------0-0-------0-0-|-----0-0-----0-0-|

INTRO - GUITAR 2
d---------------------|-----------------------|
a---------------------|-----------------------|
f-14-14-----14-14-----|-12-12-----12-12-------|
c-xx-xx-0-0-xx-xx-0-0-|-xx-xx-0-0-xx-xx-0-0---|
g-12-12-0-0-12-12-0-0-|-10-10-0-0-10-10-0-0---|
c-------0-0-------0-0-|-------0-0-------0-0---|

INTRO LEAD LICK 1
d-12-13-12-10------------|
a-------------13-10------|
f-------------------12-9-|
c------------------------|
g------------------------|
c------------------------|

INTRO LEAD LICK 2
d---------12-13-12-10----|
a------12-------------13-|
f-12-9-------------------|
c------------------------|
g------------------------|
c------------------------|

INTRO END
d----------|
a----------|
f-5-7------|
c-5-7-3-0~-|
g-3-5-3-0~-|
c-3-5-3-0~-|

VERSE - i got nothin'.
[ Tab from: http://www.guitaretab.com/t/the-receiving-end-of-sirens/67280.html ]
END VERSE ("we can swallow this key...")
d-------------------|
a-10-------13-------|
f----12-10----14-12-|
c-------------------|
g-------------------|
c-------------------|

CHORUS
d--------------|-------------|-----------------|
a--------------|-------------|-----------------|
f-----------10-|-----------9-|-----------------|
c-00-0-0-0---x-|-77-7-7-7--x-|-8-8-8-8-8-8-8-8-|
g-00-0-0-0---8-|-77-7-7-7--7-|-8-8-8-8-8-8-8-8-|
c-00-0-0-0-----|-77-7-7-7----|-8-8-8-8-8-8-8-8-|

PREVERSE2
d-----------|
a-----------|
f-----------|
c-0-0---0-0-|
g-0-0---0-0-|
c-0-0---0-0-|

PREVERSE2
d-------10----------8--------|
a----------10-10-10----------|
f-7-7-7---------------10-9-7-|
c----------------------------|
g----------------------------|
c----------------------------|

VERSE2 - GUITAR 1
d---------------------------------|-----------------|
a---------------------------------|-----------------|
f---------------------------------|-----------------|
c-0-0-0-0-0-0-0-0-3-3-3-3-8-8-8-8-|-----------------|
g-0-0-0-0-0-0-0-0-3-3-3-3-8-8-8-8-|-----------------|
c-0-0-0-0-0-0-0-0-3-3-3-3-8-8-8-8-|-1p0-1p0-1p0-1p0-|

VERSE2 - GUITAR 2
d-10--------10---8--------8---|
a----8-10----------8-10-------|
f---------7----7--------5---5-|
c-----------------------------|
g-----------------------------|
c-----------------------------|

BREAKDOWN - GUITAR 1
d---------------------|
a---------------------|
f---------------------|
c-0---0---00000-00000-|
g-0---0---00000-00000-|
c-0---0---00000-00000-|

BREAKDOWN - GUITAR 2
d-----------------|
a-------6---------|
f-7-5-7---7-5---5-|
c-------------7---|
g-----------------|
c-----------------|

POSTBREAKDOWN
d-------------------------------------|
a-------------------------------------|
f-------------------------------------|
c-0-0-0-0-0-0-0-0-10-10-10-10-7-7-8-8-|
g-0-0-0-0-0-0-0-0-10-10-10-10-7-7-8-8-|
c-0-0-0-0-0-0-0-0-10-10-10-10-7-7-8-8-|

ENDCHORUS
d----------------|
a----------------|
f-10-------------|
c-10---7---8---5-|
g--8---7---8---5-|
c------7---8---5-|

...and that's all it got. enjoy!
Related for Planning A Prison Break tab
Advertisement will be closed in 10 seconds