Song name
# A B C D E F G H I J K L M N O P Q R S T U V W X Y Z

The Receiving End Of Sirens - War Of All Against All tab

----------------------------------------------------------------------------------|     
War of All Against All - The Receiving End of Sirens
----------------------------------------------------------------------------------|
Tabbed by:ben
Email:bkane531@yahoo.com

Tuning:CGCFAD


ok so, there are no tabs for this, so i decided to tab out what i think is correct. THIS
PRETTY MUCH ONLY THE RYTHMN GUITAR. i only tabbed out some of the lead, sorry.

()=OPTIONAL NOTE
.=PALM MUTE

its in drop C...good luck. this is not hard. you can screw around with this stuff.

The intro (with the drums and stuff) is really hard to tab out..its a bunch of guitars
tapping and stuff. you can hear some notes and make up your own thing, like i did, but
very hard to tab out exactly whats being played. with that said, my tab starts at the 
part in the intro before the singing starts.

ATTENTION: THIS IS GOING TO BE VERY CONFUSING
all the stuff is here, its just hard to understand probably because
i suck at organizing.

Guitar 1
2X
d|--------------------------------------------------------------------------|
a|--------------------------------------------------------------------------|
f|9999-99999-999-------(7)--------------------------------------------------|
C|9999-99999-999-101010-5-10101010-1212121212-------------------------------|
G|7777-77777-777-101010-5-10101010-1212121212-------------------------------|
C|---------------101010-5-10101010-1212121212-------------------------------|

Guitar 2
2x
d|--------------------------------------------------------------------------|
a|--------------------------------------------------------------------------|
f|12121212-14141414-1211-12121212-14141414-16161616-------------------------|
C|-x-x-x-x--x-x-x-x--x--x-x-x-x-x--x-x-x-x--x-x-x-x-------------------------|
G|10101010-12121212-10-9/10101010-12121212-14141414-------------------------|
C|--------------------------------------------------------------------------|

Verse 1
Guitar 1
2x
d|--------------------------------------------------------------------------|
a|--------------------------------------------------------------------------|
f|--------------------------------------------------------------------------|
C|22-2-222-2-222-2-222-2-2---5745--5745--5745--5745-------------------------|
G|22-2-222-2-222-2-222-2-2-33----33----00----55-----------------------------|
C|22-2-222-2-222-2-222-2-2--------------------------------------------------|
                           ........................

Guitar 2
play this part when casey sings:
"look alive gentlemen"
"some are so well-rehearsed"
"and barricade themselves"
and when brendan sings,
"forged casualties..."
d|--------------------------------------------------------------------------|
a|--------------------------------------------------------------------------|
f|--------------------------------------------------------------------------|
C|--0h2p0----0h2p0----0h2p0----0h2p0----------------------------------------|
G|24-----4-24-----4-24-----4-24-----4---------------------------------------|
C|--------------------------------------------------------------------------|

Still verse 1,
Guitar 1 plays this when casey sings "and barricade themselves"
up until "forged casualties..."

d|--------------------------23-2--23-2--23-2--23-2--------------------------|
a|----------------------------3-----3-----3-----3---------------------------|
f|--------------------------------------------------------------------------|
C|22-2-222-2-222-2-22-2-2-------------------00------------------------------|
G|22-2-222-2-222-2-22-2-2-33----33----00------------------------------------|
C|22-2-222-2-222-2-22-2-2---------------------------------------------------|

"forged casualties...:

Guitar 1 (G2 i already tabbed out for this part)

d|--------------------------------------------------------------------------|
a|--------------------------------------------------------------------------|
f|-------------------------55555-----7--------------------------------------|
C|22-2-222-2-222-2-222-2-2-55555777777--------------------------------------|
G|22-2-222-2-222-2-222-2-2-33333777775--------------------------------------|
C|22-2-222-2-222-2-222-2-2------77777---------------------------------------|


(We DIE TO STAY ALIVE...)

Guitars 1 and 2 (didn't tab nate out)
2x
d|--------------------------------------------------------------------------|
a|--------------------------------------------------------------------------|
f|--------------------------------------------------------------------------|
C|---------------------------22-22------------------------------------------|
G|7-5h7----7-5h7----7-5h7----22-22------------------------------------------|
C|-----5h7------5h7------5h7-22-22------------------------------------------|

(WE KILL TO SURVIVE...)

Guitars 1 and 2 (didn't tab nate out)

d|--------------------------------------------------------------------------|
a|--------------------------------------------------------------------------|
f|55555555555-------777777--------------------------------------------------|
C|555555555557777777777777--------------------------------------------------|
G|333333333337777777555555--------------------------------------------------|
C|-----------7777777--------------------------------------------------------|

Chorus

Guitar 1
i tabbed this out wider so you could see
where the triplets are
I didn't tab out guitar 2, even though it doesn't sound too hard
d|--------------------------------------------------------------------------|
a|--------------------------------------------------------------------------|
f|------------------------------------------555555555-------7777777---------|
C|2-2-2--2-2-2-222-222-2-2-2--2-2-2-222-222-55555555577777777777777---------|
G|2-2-2--2-2-2-222-222-2-2-2--2-2-2-222-222-33333333377777775555555---------|
C|2-2-2--2-2-2-222-222-2-2-2--2-2-2-222-222----------7777777----------------|
  . . .  . . . ... ... . . .  . . . ... ...

Verse 2 (push on plod on these legs..)
Guitar 1
again, nate's doing some sick shit during this part but its
too distant to get all the notes right
so heres Guitar 1 anyways

d|--------------------------------------------------------------------------|
a|--------------------------------------------------------------------------|
f|--------------------------------------------------------------------------|
C|2-2--2-2-2--2-2-2--2-2-2--2-2-2--2-2-2--2-2-2--2-2-2--2-------------------|
G|2-2--2-2-2--2-2-2--2-2-2--2-2-2--2-2-2--2-2-2--2-2-2--2-------------------|
C|2-2--2-2-2--2-2-2--2-2-2--2-2-2--2-2-2--2-2-2--2-2-2--2-------------------|
  . .  . . .  . . .  . . .  . . .  . . .  . . .  . . .

d|--------------------------------------------------------------------------|
a|--------------------------------------------------------------------------|
f|------------------------------------------------------7-------------------|
C|------------------------------------------------------7-------------------|
G|3-3--3-3-3--3-333--3-3-3--3-----------------555-5-555-5-------------------|
C|----------------------------7-7--7-7-7--7-7-------------------------------|
  . .  . . .  . ...  . . .  . . .  . . .  . . ... . ...

do that 2x
then its back to the chorus.
the second chorus is the same
EXEPT that guitar 1 doesn't play muted chords until the second run through of the second chorus.
its really easy, you'll understand when you listen to it.

at the end of chorus 2:
guitar 1
"armed...bring all the kings horses and all the kings men"
d|--------------------------------------------------------------------------|
a|--------------------------------------------------------------------------|
f|-----777777---------------------------------------------------------------|
C|5~---777777-7-777-7-777---------------------------------------------------|
G|5~---555555-7-777-7-777---------------------------------------------------|
C|5~----------7-777-7-777---------------------------------------------------|
              . ... . ...

guitar 1
"we were led to lead lovers, marching to the beat..."
d|--------------------------------------------------------------------------|
a|55-555-555-555-555-555-555-55-5-------------------------------------------|
f|44-444-444-444-444-444-444-44-4-55-555-555-555-555-555-55/7-7777----------|
C|22-222-222-222-222-222-222-22-2-55-555-555-555-555-555-55/7-7777----------|
G|22-222-222-222-222-222-222-22-2-33-333-333-333-333-333-33/5-5555----------|
C|22-222-222-222-222-222-222-22-2-------------------------------------------|

Bridge

guitar 1
d|--------------------------------------------------------------------------|
a|---55--55-----------------------------------------------------------------|
f|--------------------------------------------------------------------------|
C|--------------------------------------------------------------------------|
G|--------------------------------------------------------------------------|
C|222--22--222--------------------------------------------------------------|
  ...  ..  ...

guitar 2
d|-----------10-------------------------------------------------------------|
a|10h12--------------10h12--------------------------------------------------|
f|------12p9----12p9-------12p9---------------------------------------------|
C|--------------------------------------------------------------------------|
G|--------------------------------------------------------------------------|
C|--------------------------------------------------------------------------|

drums kick in...
guitar 1

d|--------------------------------------------------------------------------|
a|---55--55-------55--55--------55--55--------55--55------------------------|
f|--------------------------------------------------------------------------|
C|--------------------------------------------------------------------------|
G|---------------------------333--33--333--333--33--555---------------------|
C|222--22--222-222--22--222-------------------------------------------------|
  ...  ..  ... ...  ..  ...  ...  ..  ...  ...  ..  ...

guitar 2
4x
d|5p0-3p0-2h3p2p0-----------------------------------------------------------|
a|----------------3/5557788-------------------------------------------------|
f|--------------------------------------------------------------------------|
C|--------------------------------------------------------------------------|
G|--------------------------------------------------------------------------|
C|--------------------------------------------------------------------------|

"the cannon's calling our name..."
guitar 1
d|--------------------------------------------------------------------------|
a|---55--55--------55--55---------------------------------------------------|
f|---------------------------5555555555555----------------------------------|
C|---------------------------5555555555555----------------------------------|
G|---------------------------3333333333333/55555555-------------------------|
C|222--22--222--222--22--222------------------------------------------------|
  ...  ..  ...  ...  ..  ...

guitar 2
4x
d|5p0-3p0-2h3p2p0-----------------------------------------------------------|
a|----------------3/5557788-------------------------------------------------|
f|--------------------------------------------------------------------------|
C|--------------------------------------------------------------------------|
G|--------------------------------------------------------------------------|
C|--------------------------------------------------------------------------|

"to arms to arms"
guitar 1
2x
d|--------------------------------------------------------------------------|
a|--------------------------------------------------------------------------|
f|9999-99999-999-------(7)--------------------------------------------------|
C|9999-99999-999-101010-5-10101010-1212121212-------------------------------|
G|7777-77777-777-101010-5-10101010-1212121212-------------------------------|
C|---------------101010-5-10101010-1212121212-------------------------------|

then guitar 1 plays this twice until the end
i didn't tab out guitar 2
d|--------------------------------------------------------------------------|
a|--------------------------------------------------------------------------|
f|--------------------------(7)---------------------------------------------|
C|222222222-222222222-101010-5-10101010-1212121212--------------------------|
G|222222222-222222222-101010-5-10101010-1212121212--------------------------|
C|222222222-222222222-101010-5-10101010-1212121212--------------------------|


| /  slide up
| \  slide down
| h  hammer-on
| p  pull-off
| ~  vibrato
| +  harmonic
| x  Mute note
============================================================================
Tap to rate this tab
# A B C D E F G H I J K L M N O P Q R S T U V W X Y Z