Song name
# A B C D E F G H I J K L M N O P Q R S T U V W X Y Z

The Red Chord - Love On The Concrete tab

by;  Chris Parker


------------------------------------------|
------------------------------------------|
---------3-------------3---3--3-----------|
3--2--1--2----3--2--1--2---2--2-----------|
3--2--1-------3--2--1---------------------|
3--2--1-------3--2--1---------------------|
*  *  *       *  *  *


------------------------------------------|
------------------------------------------|
------------------------------------------|
5--0--1--3--1--0--0-0--0---1--3-----------|(x8) then repeat first
5--0--1--3--1--0--0-0--0---1--3-----------|
5--0--1--3--1--0--0-0--0---1--3-----------|
                  * *


------------------------------------------|
------------------------------------------|
------------------------------------------|
------------------------------------------|(x3)
------------------------------------------|
9--7--5--0(x2)--9--5--9--5--9--5----------|


-------- ---------------------------------|
-------- ---------------------------------|
-------- ---------------------------------|
7--9---- 10--12--0000--3333---------------|(x4)bass solo...
7--9---- 10--12--0000--3333(x3)-----------|
7--9---- 10--12--0000--3333----12-10-8-7--|

then repeat last 2

------------------------------------------|
------------------------------------------|
------------------------------------------|
5-0-10/-5-0-14/--7--0-0--7777-------------|(x till end rift)
5-0-----5-0------5--0-0--5555(x2)---------|
5-0-----5-0---------0-0-------------------|
                    * *


and i don't know the last part...this is my first tab on here so tell
me what you think.
Tap to rate this tab
# A B C D E F G H I J K L M N O P Q R S T U V W X Y Z