Song name
# A B C D E F G H I J K L M N O P Q R S T U V W X Y Z

The Red Chord - Breed The Cancer tab

Sup people sorry about my last tab i consider this the bounceback.

Standard Tuning

Start off clean


*=muted
/=slide up
{#}=pinch harmonic


|-------------------|3x
|-------------------|
|-----5-------------|
|--------3----------|
|-----------2-------|
|--------------0----|


|-------------------|
|-------------------|
|----5--------------|
|-------3-----2-----|
|----------2--2-----|
|-------------0-----|

the
|-----|
|-----|
|-----|
|--2--|
|--2--|
|--0--|
is distorted

So now we're distorted, sweet.

|-------------------------------------------------|
|-------------------------------------------------|
|---5-----------5-----------5-----------5---------|
|------3-----------3-----------3-----------3------|
|---------2-----------2--0--------2/7---------2---|
|------------0-----------0------------------------|
                         *
                 4x then 
|------------------|---------------------|
|------------------|---------------------|
|------------------|---------------------|
|------------------|---------------------|
|--3-----3-----5---|---7-7-5-5-8-8-{3}---|
|--1-0-0-1-0-0-3-0-|---------------------|
     * *   * *   *


That part is obviously done 4 times fast then 4 times slow.


|------------------------------------------|
|------------------------------------------|
|------------------------------------------|
|---12121212101010106666555533332222-------|
|-----------------------------------3333---|
|------------------------------------------|<<<<<<<
                                            6x>>>>^
|-------------------------------------------|<<<<<<
|-------------------------------------------|
|-------------------------------------------|
|---1515151514141414101010109999555544440000|
|-------------------------------------------|
|-------------------------------------------|

|---------------------|---------------------|
|---------------------|---------------------|
|---------------------|---------------------|
|---------------------|---------------------|
|---3-----3-----5-----|---7-7-5-5-8-8-{3}---|
|---1-0-0-1-0-0-3-0---|---------------------|
      * *   * *   *      1x^
4x^


This time it's 2 times fast and 2 times slow.
Now, we're almost there!!!

|-------------------------|
|-------------------------|
|-------------------------|
|-------------------------|
|---2--2--2--2--2--2--2---|
|---0--0--0--0--0--0--0---|

____________________________________________________________________________

O-b K-b
Final part

|------------------------------------------------------------|
|------------------------------------------------------------|
|---5-6-5-----------------------5-6-5------------------------|
|---3-4-3-----------------------3-4-3------------------------|
|---------2-2--2--2--2-2--2-2---------2-2--2--2--2-3-2-4-2---|
|---------0-0--0--0--0-0--0-0---------0-0--0--0--0-1-0-2-0---|<<<
          * *  *  *  * *  * *         * *  *  *  *   *   *      ^
                                                              2x^
|------------------------------------------------------------|<<<
|------------------------------------------------------------|
|---5-6-5-----------------------5-6-5------------------------|
|---3-4-3-----------------------3-4-3------------------------|
|---------2-2--2--2--2-2--2-2---------2-2--2--2--2--3/4------|
|---------0-0--0--0--0-0--0-0---------0-0--0--0--0--1/2------|
          * *  *  *  * *  * *         * *  *  *  *

These last 2 ^ are one part split in half.


... and that was all she wrote ...
 
I hope you can make sense of it and if you can't I'm sorry. Please comment.
Tap to rate this tab
 
# A B C D E F G H I J K L M N O P Q R S T U V W X Y Z