Song name
# A B C D E F G H I J K L M N O P Q R S T U V W X Y Z

The Red Chord - Jar Full Of Bunny Parts tab

Jar Full of Bunny Parts
By: The Red Chord


D|---------------------------------|    |---------------------------------|
A|---------------------------------|    |---------------------------------|
F|---------------------------------|    |---------------------------------|
C|---------------------------------|3x  |---------------------------------|
G|---------------------------------|    |--5---5---4-5-4-0----------------|
D|--3332221111111111---------------|    |--3-0-3-0-2-3-2-0----------------|
                                           . . . . . . . .
That whole riff 4x then

 |---------------------------------|    |---------------------------------|
 |---------------------------------|    |---------------------------------|
 |---------------------------------|    |---------------------------------|
 |---------------------------------|3x  |---------------------------------|
 |--5---5---4-5-0------------------|    |--5---5---4-5--5*----------------|
 |--3-0-3-0-2-3-0------------------|    |--3-0-3-0-2-3--------------------|
    . . . . . . .                          . . . . . .

Play that riff 2x

 |---------------------------------|    |---------------------------------|
 |---------------------------------|    |---------------------------------|
 |---------------------------------|    |---------------------------------|
 |---------------------------------|3x  |---------------------------------|
 |---------------------------------|    |--5---5---4-5-4-0----------------|
 |--3332221111111111---------------|    |--3-0-3-0-2-3-2-0----------------|
                                           . . . . . . . .
That whole riff 4x then

 |---------------------------------|    |---------------------------------|
 |---------------------------------|    |---------------------------------|
 |---------------------------------|    |---------------------------------|
 |---------------------------------|3x  |---------------------------------|
 |--5---5---4-5-0------------------|    |--5---5---4-5--5*----------------|
 |--3-0-3-0-2-3-0------------------|    |--3-0-3-0-2-3--------------------|
    . . . . . . .                          . . . . . .

Play that riff 2x hold the harmonic then slide up to the 12th fret and come back down


 |---------------------------------|    |---------------------------------|
 |---------------------------------|    |---------------------------------|
 |---------------------------------|    |---------------------------------|
 |---------------------------------|3x  |---------------------------------|
 |--5---5---4-5-0------------------|    |--5---5---4-5--5*----------------|
 |--3-0-3-0-2-3-0------------------|    |--3-0-3-0-2-3--------------------|
    . . . . . . .                          . . . . . .

Play that 2x and you're done


 

Tap to rate this tab
# A B C D E F G H I J K L M N O P Q R S T U V W X Y Z