Song name
# A B C D E F G H I J K L M N O P Q R S T U V W X Y Z

The Red Jumpsuit Apparatus - Step Right Up tab

Pls comment for corrections...

Intro-
GtrI
|-----------------------------------|
|-----------------------------------|
|-----------------------------------|
|-1~--1-1-1-1-1-1-1-1-1-1-1h3-3-3---|
|-1~--1-1-1-1-1-1-1-1-1-1-1h3-3-3---|
|-1~--1-1-1-1-1-1-1-1-1-1-1h3-3-3---|
      * * * * * * * * * * *
GtrII
|-----------------------------------|
|-----------------------------------|
|-8~-------------77/88/1010/88/7----|
|-----------------------------------|
|-6~-------------55/66/8-8-/66/5----|
|-----------------------------------|

GtrI
|-------------------------------------------------------------------------|
|-------------------------------------------------------------------------|
|-------------------------------------------------------------------------|
|-3-3-3-3--1-1-1-1--3-3-3-3--3-3-3-3-5-5-5-5--1-1-1-1--5-5-5-5--3-3-3-3---|
|-1-1-1-1--1-1-1-1--1-1-1-1--0-0-0-0-5-5-5-5--1-1-1-1--5-5-5-5--3-3-3-3---|
|----------1-1-1-1-------------------5-5-5-5--1-1-1-1--5-5-5-5--3-3-3-3---|

GtrII
|-----------------------------------------------|
|-----------------------------------------------|
|-77-77-8-88-8-8/10-10/8--77-77-5-55-5-5/3-3/5--|
|-----------------------------------------------|
|-55-55-6-66-6-6/8--8-/6--55-55-3-33-3-3/1-1/3--|
|-----------------------------------------------|

|------------------------------------------------------|
|------------------------------------------------------|
|-77-77-8-88-8-8/10-10/8--1515-1515-5-55-5-5/3-3-3/5\3-|
|------------------------------------------------------|
|-55-55-6-66-6-6/8--8-/6--1313-1313-3-33-3-3/1-1-1/3\1-|
|------------------------------------------------------|

Verse-
Figure palm muting.....
|------------------------------------------------------------------|
|------------------------------------------------------------------|
|------------------------------------------------------------------|
|-3-3-3-3-3-3-3-3-3-3-3-3-3-3-3-3-1-1-1-1-1-1-1-1-1-1-1-1-1-1-1-1--|4x
|-1-1-1-1-1-1-1-1-1-1-1-1-1-1-1-1-1-1-1-1-1-1-1-1-1-1-1-1-1-1-1-1--|
|---------------------------------1-1-1-1-1-1-1-1-1-1-1-1-1-1-1-1--|

GtrII
|---------------------------------------------------------------|
|---------------------------------------------------11--11------|
|-----------------------------------------3--3------10--10------|
|--------3--3-3-----------------------1---1--1------------------|
|--------1--1-1-----------------------1---1--1------------------|
|-------------------------------------1---1--1------------------|

|-----------------------------------------------------------------|
|------------------------------------------11--11--13p11-13p11-15-|
|------------------------------------------10--10-----------------|
|--------3--3-3-----------------------1---------------------------|
|--------1--1-1-----------------------1---------------------------|
|-------------------------------------1---------------------------|

|-----------------------------------------10--------|
|-111111--1111-1111--111111---1111--1111--11-131313-|
|-101010--1010-1010--101010---1010--1010--10-101010-|
|---------------------------------------------------|
|---------------------------------------------------|
|---------------------------------------------------|

|-------------10----------------------------11----------|
|-1111--1111--11-131313--1111---1111--1111--11-131313---|
|-1010--1010--10-101010--1010---1010--1010--10-101010---|
|-------------------------------------------------------|
|-------------------------------------------------------|
|-------------------------------------------------------|

Chorus-
GtrI
|-------------------------------------------------------------------------|
|-------------------------------------------------------------------------|
|-------------------------------------------------------------------------|
|-3-3-3-3--1-1-1-1--3-3-3-3--3-3-3-3-5-5-5-5--1-1-1-1--5-5-5-5--3-3-3-3---|
|-1-1-1-1--1-1-1-1--1-1-1-1--0-0-0-0-5-5-5-5--1-1-1-1--5-5-5-5--3-3-3-3---|
|----------1-1-1-1-------------------5-5-5-5--1-1-1-1--5-5-5-5--3-3-3-3---|

GtrII
|------------------------------------------------------------------------|
|------------------------------------------------------------------------|
|-10101010-8888-10101010-55555/3-3-7777-8-8-8-8-7777--5-55-5-5/3-3-3/5\3-|
|------------------------------------------------------------------------|
|-8-8-8-8--6666-8-8-8-8--33333/1-1-5555-6-6-6-6-5555--3-33-3-3/1-1-1/3\1-|
|------------------------------------------------------------------------|

Do verse-

Repeat Chorus-

Chorus2-
GtrI

|-------------------------------------------------------------------------|
|-------------------------------------------------------------------------|
|-------------------------------------------------------------------------|
|-3-3-3-3--1-1-1-1--3-3-3-3--3-3-3-3-5-5-5-5--1-1-1-1--5-5-5-5--3-3-3-3---|
|-1-1-1-1--1-1-1-1--1-1-1-1--0-0-0-0-5-5-5-5--1-1-1-1--5-5-5-5--3-3-3-3---|
|----------1-1-1-1-------------------5-5-5-5--1-1-1-1--5-5-5-5--3-3-3-3---|

GtrII
|-----------------------------------------------|
|-----------------------------------------------|
|-77-77-8-88-8-8/10-10/8--77-77-5-55-5-5/3-3/5--|
|-----------------------------------------------|
|-55-55-6-66-6-6/8--8-/6--55-55-3-33-3-3/1-1/3--|
|-----------------------------------------------|

|------------------------------------------------------|
|------------------------------------------------------|
|-77-77-8-88-8-8/10-10/8--1515-1515-5-55-5-5/3-3-3/5\3-|
|------------------------------------------------------|
|-55-55-6-66-6-6/8--8-/6--1313-1313-3-33-3-3/1-1-1/3\1-|
|------------------------------------------------------|

Bridge-

GtrI

|------------------------------------------------|
|------------------------------------------------|
|------------------------------------------------|
|-3~---------------5-----------1~----------------|5x
|-3~---------------5-----------1~----------------|
|-3~---------------5-----------1~----------------|


|------------------------------------------------|
|------------------------------------------------|
|------------------------------------------------|
|-3~---------------5-----------(these are 1's)---|
|-3~---------------5----------1111111111111111---|
|-3~---------------5----------1111111111111111---|
                              ****************
GtrII
|------------------1~-----------------1~----|
|------3-----------3~--------3--------3~----|
|---------3--------3~----------3------3~----|
|-3~---------1-----1~-----1~-----1----1~----|5x
|-------------------------------------------|
|-------------------------------------------|

|------------------1~-----------------------|
|------3-----------3~-----------------------|
|---------3--------3~-----------------------|
|-3~---------1-----1~------(these are 1's)--|
|------------------------1111111111111111---|
|------------------------1111111111111111---|
                         ****************

Do Chorus1-

Chorus-
GtrI
|-------------------------------------------------------------------------|
|-------------------------------------------------------------------------|
|-------------------------------------------------------------------------|
|-3333333-1111111-33333333-3333333-5555555--1111111--5555555--3333333-----|
|-1111111-1111111-11111111-0000000-5555555--1111111--5555555--3333333-----|
|---------1111111------------------5555555--1111111--5555555--3333333-----|


|-------------------------------------------------------------------------|
|-------------------------------------------------------------------------|
|-------------------------------------------------------------------------|
|-3333333-1111111-33333333-3333333-5555555--1111111--5555555--3333333--1~-|
|-1111111-1111111-11111111-0000000-5555555--1111111--5555555--3333333--1~-|
|---------1111111------------------5555555--1111111--5555555--3333333--1~-|
GtrII
|-----------------------------------------------|
|-----------------------------------------------|
|-77-77-8-88-8-8/10-10/8--77-77-5-55-5-5/3-3/5--|
|-----------------------------------------------|
|-55-55-6-66-6-6/8--8-/6--55-55-3-33-3-3/1-1/3--|
|-----------------------------------------------|

|------------------------------------------------------|
|------------------------------------------------------|
|-77-77-8-88-8-8/10-10/8--7-7--7-7--5-55-5-5/3-3-3/5\3-|
|------------------------------------------------------|
|-55-55-6-66-6-6/8--8-/6--5-5--5-5--3-33-3-3/1-1-1/3\1-|
|------------------------------------------------------|

|-----------------------------------------------|
|-77-77-8-88-8-8/10-10/8--77-77-5-55-5-5/3-3/5--|
|-----------------------------------------------|
|-55-55-6-66-6-6/8--8-/6--55-55-3-33-3-3/1-1/3--|
|-----------------------------------------------|

|-------------------------------------------------------|
|-------------------------------------------------------|
|-77-77-8-88-8-8/10-10/8--7-7--7-7--5-55-5-5/3-3-3/5\3~-|
|-------------------------------------------------------|
|-55-55-6-66-6-6/8--8-/6--5-5--5-5--3-33-3-3/1-1-1/3\1~-|
|-------------------------------------------------------|
Tap to rate this tab
# A B C D E F G H I J K L M N O P Q R S T U V W X Y Z