Song name
# A B C D E F G H I J K L M N O P Q R S T U V W X Y Z

The Red Jumpsuit Apparatus - Pleads And Postcards tab

(Guitar 1)
E|------------------------------------------------------|
B|------------------------------------------------------|
G|------------------------------------------------------|
D|-7-7-7-7---2--2-2-2--3-3-3-3------------------5-5-5-5-|
A|-7-7-7-7---2--2-2-2--3-3-3-3------------------5-5-5-5-|
E|-5-5-5-5---0--0-0-0--1-1-1-1------------------3-3-3-3-|

E|------------------------------------------------------|
B|------------------------------------------------------|
G|------------------------------------------------------|
D|-7-7-7-7---2--2-2-2--3-3-3-3-3-3-3-3-3-3-3-3--5-5-5-5-|
A|-7-7-7-7---2--2-2-2--3-3-3-3-3-3-3-3-3-3-3-3--5-5-5-5-|
E|-5-5-5-5---0--0-0-0--1-1-1-1-1-1-1-1-1-1-1-1--3-3-3-3-|
                               ...Palm Mute...

(Guitar 2) 0:06
E|-8------8------8------8------8-9-9---5---5---5---5-----5-7-7-7-|
B|---10-----10-----10-----10-------------6---6---6---6-----------|
G|------9------9------9------9-------------7---7---7---7---------|
D|---------------------------------------------------------------|
A|---------------------------------------------------------------|
E|---------------------------------------------------------------|
Tap to rate this tab
# A B C D E F G H I J K L M N O P Q R S T U V W X Y Z