Song name
# A B C D E F G H I J K L M N O P Q R S T U V W X Y Z

The Red Jumpsuit Apparatus - Pen And Paper tab

Pen and Paper
The Red Jumpsuit Apparatus
Lonely Road (2009)
tabbed by:
ustingnumber9

Tuning:
Drop C
(top to bottom) C G C F A d


Intro:


Guitar 1
      . .            . .
C|----0-0-0~~~~~~~~~~0-0-0~~~~~~~~~~-|
G|----0-0-0~~~~~~~~~~0-0-0~~~~~~~~~~-|
C|----0-0-0~~~~~~~~~~0-0-0~~~~~~~~~~-|
F|-----------------------------------|
A|-----------------------------------|
d|-----------------------------------|

Guitar 2
      . .            . .
C|----0-0-0~~~~~~~~~~0-0-0~~~~~~~~~~-|
G|----0-0-0~~~~~~~~~~0-0-0~~~~~~~~~~-|
C|----0-0-0~~~~~~~~~~0-0-0~~~~~~~~~~-|
F|-----------------------------------|
A|-----------------------------------|
d|-----------------------------------|

Guitar 1
      . . . .
C|----0-0-0-0----------------------|
G|----0-0-0-0----------------------|
C|----0-0-0-0----------------------|
F|---------------------------------|
A|---------------------------------|
d|---------------------------------|


Guitar 2

C|---------------------------------|
G|----4-4-4/5----------------------|
C|----x-x-xxx----------------------|
F|----6-6-6/7----------------------|
A|---------------------------------|
d|---------------------------------|

Verse:

Guitar 1

      ...................................... ..............................
C|----00000000000000000000000000000000000000-555555555555555555555555555555-|
G|----00000000000000000000000000000000000000-555555555555555555555555555555-|
C|--------------------------------------------------------------------------|
F|--------------------------------------------------------------------------|
A|--------------------------------------------------------------------------|
d|--------------------------------------------------------------------------|

Guitar 2

      ..............   ............             .............  .......
C|x--------------------------------------------------------------------------|
G|----555555555555555\444444444444444-5-5-7-7/9-99999999999999\7777777-9-10--|
C|x--------------------------------------------------------------------------|
F|------------------7\6---------------7-7-9-9/11------------11\5-----5-11-12-|
A|---------------------------------------------------------------------------|
d|---------------------------------------------------------------------------|


Chorus:


Guitar 1


C|----0~~~~~0~~~~~0~~~~~0~~~~~0~~~~~~5~~~~~5~~~~~5~~~~~5~~~~~5~~~~5-4-0~~~~~~-|
G|----0~~~~~0~~~~~0~~~~~0~~~~~0~~~~~~5~~~~~5~~~~~5~~~~~5~~~~~5~~~~5-4-0~~~~~~-|
C|----0~~~~~0~~~~~0~~~~~0~~~~~0~~~~~~5~~~~~5~~~~~5~~~~~5~~~~~5~~~~5-4-0~~~~~~-|
F|----------------------------------------------------------------------------|
A|----------------------------------------------------------------------------|
d|----------------------------------------------------------------------------|

Guitar 2


C|x---------------------------------------------------------------------------|
G|----4/5~~~5/7~~~7/9~~~10\9~~~7\5~~~2~~~2/5~~~5/7~~~5~~~10-9---------5~~~~~~-|
C|x---------------------------------------------------------------------------|
F|----6/7~~~7/9~~~9/11~~12\11~~9\7~~~4~~~4/7~~~7/9~~~7~~~12-11--------7~~~~~~-|
A|----------------------------------------------------------------------------|
d|----------------------------------------------------------------------------|
       exact timing for chord change ^		     add @ ending ^

Bridge:


Guitar 1

C|----------------------------------------5555555555555555-7777777777777777--|
G|----2-22222222222-444444444455555555555-5555555555555555-7777777777777777--|
C|----4-44444444444-666666666677777777777-5555555555555555-7777777777777777--|
F|----4-44444444444-666666666677777777777------------------------------------|
A|---------------------------------------------------------------------------|
d|---------------------------------------------------------------------------|


Guitar 2


C|----------------------------------------5555555555555555-7777777777777777--|
G|----------------------------------------5555555555555555-7777777777777777--|
C|----------------------------------------5555555555555555-7777777777777777--|
F|---------------------------------------------------------------------------|
A|----2h4*-4-2h4*-2h4*-2h4*-4-2h4*-2h4*--------------------------------------|
d|---------------------------------------------------------------------------|

Guitar 1

C|----------------------------------------5555555555555555-7777777777777777--0~~~~~5~~~~~--|
G|----2-22222222222-444444444455555555555-5555555555555555-7777777777777777--0~~~~~5~~~~~--|
C|----4-44444444444-666666666677777777777-5555555555555555-7777777777777777--0~~~~~5~~~~~--|
F|----4-44444444444-666666666677777777777--------------------------------------------------|
A|-----------------------------------------------------------------------------------------|
d|-----------------------------------------------------------------------------------------|


Guitar 2


C|---------------------------------------------------------------------------0~~~~~5~~~~~--|
G|----------------------------------------5555555555555555555555555555-9--7--0~~~~~5~~~~~--|
C|---------------------------------------------------------------------------0~~~~~5~~~~~--|
F|----------------------------------------7777777777777777777777777777-11-9----------------|
A|----2h4*-4-2h4*-2h4*-2h4*-4-2h4*-2h4*----------------------------------------------------|
d|-----------------------------------------------------------------------------------------|

Legend:
. - Palm Mute
h - hammer on
* - vibrato
x - dead string
/ - slide up
\ - slide down
~ - let ring


After the repeat in the bridge its back to the chorus and repeat then end...

my first tab, so be nice :)

check out my cover for reference too :D

thanks
Tap to rate this tab
 
# A B C D E F G H I J K L M N O P Q R S T U V W X Y Z