Song name
# A B C D E F G H I J K L M N O P Q R S T U V W X Y Z

The Red Jumpsuit Apparatus - Choke tab

Choke Tab
IN DROP D!

***NOTE*** In Intro and Chorus: 2nd time round ends in 11th fret B string semitone bend 
times... play to the music

***NOTE*** there is no strumming pattern in this tab (or any tab i make) play along with 
song :)

Watch my cover if u need help with timing etc: http://www.youtube.com/watch?v=bsSPbYoSIy8

Intro:
E|------------------------------------------------------|
B|--------------12--11------12--11------12--11------12--|
G|--13--16--11----------11----------11----------11------| x2
D|--13--16----------------------------------------------|
A|--11--14----------------------------------------------|
D|------------------------------------------------------|

E|--------|
B|--------|
G|--------|
D|--4--6--|
A|--4--6--|
D|--4--6--|


Verse 1 (Palm Muted):
E|-----------------|
B|-----------------|
G|-----------------| x2 (only second time with the final bar chord)
D|--6--2--4--8--9--|
A|--6--2--4--8--9--|
D|--6--2--4--8--9--|

Chorus:
E|------------------------------------------------------|
B|--------------12--11------12--11------12--11------12--|
G|--13--16--11----------11----------11----------11------| x2
D|--13--16----------------------------------------------|
A|--11--14----------------------------------------------|
D|------------------------------------------------------|


E|--------|
B|--------|
G|--------|
D|--4--6--|
A|--4--6--|
D|--4--6--|

Verse 2 (Palm Muted):
E|-----------------|
B|-----------------|
G|-----------------| x2 (only second time with the final bar chord)
D|--6--2--4--8--9--|
A|--6--2--4--8--9--|
D|--6--2--4--8--9--|

Chorus:
E|------------------------------------------------------|
B|--------------12--11------12--11------12--11------12--|
G|--13--16--11----------11----------11----------11------| x2
D|--13--16----------------------------------------------|
A|--11--14----------------------------------------------|
D|------------------------------------------------------|


Interlude:
E|-----------------------------|
B|-----------------------------|
G|-----------------------------|
D|--4--4--4--2--6--2--6--2--6--|
A|--4--4--4--2--6--2--6--2--6--|
D|--4--4--4--2--6--2--6--2--6--|

Chorus:
E|------------------------------------------------------|
B|--------------12--11------12--11------12--11------12--|
G|--13--16--11----------11----------11----------11------| x2
D|--13--16----------------------------------------------|
A|--11--14----------------------------------------------|
D|------------------------------------------------------|

OUTRO IS CHORUS AGAIN... EASY!
Tap to rate this tab
 
# A B C D E F G H I J K L M N O P Q R S T U V W X Y Z