The Red Jumpsuit Apparatus - Choke tab

-------------------------------------------------------------------------------
			    Choke - The Red Jumpsuit Apparatus
-------------------------------------------------------------------------------
Tabbed by: MattShea369
Email: mattheweshea@hotmail.com

Tuning: Stardard

I think all RJA songs are in drop C tuning, but this song doesn't need to be, and it's a 
easier than tuning it to drop C. This is my first tab, so if there's a mistake in the 
just let me know.
Thanks


Intro/Chorus:
e|--------------------------------------------------------|
B|----------------------------12---11------------12---11--|
G|-13(x16)-16(x16)-----11-----------------11--------------|
D|-13------16------9-9----9-9----9----9-9----9-9----9-----|
A|-11------14---------------------------------------------|
E|--------------------------------------------------------|

e|--------------------|
B|------------12---11-|
G|-----11-------------| x2
D|-9-9----9-9----9----|
A|--------------------|
E|--------------------|

Play this ending the first time:

e|-----------------|
B|------------12---|
G|-----11----------|
D|-9-9----9-9------|
A|-----------------|
E|-----------------|

Play this ending the second time:

e|--------------------|
B|-12b13br12b13br12---|
G|--------------------|
D|--------------------|
A|---------------2-4--|
E|---------------4-6--|

Verse (Palm Muted):

e|------------------------------|
B|------------------------------|
G|------------------------------| x2
D|------------------------------|
A|-4(x16)-0(x16)-6(x16)-8(x16)--|
E|-6------2------7------6-------|

Chorus

Verse

Chorus

Bridge:

e|----------------------|
B|----------------------|
G|----------------------| x2
D|----------------------|
A|-0(x16)-6(x8)-4(x8)---|
E|-2------4------2------|

e|----------------------|
B|----------------------|
G|----------------------|
D|----------------------|
A|-0(x16)-6(x8)-4(x5)---|
E|-2------4------2------|


Chorus (Without last 2 chords)

Chorus
Tap to rate this tab
 
# A B C D E F G H I J K L M N O P Q R S T U V W X Y Z