Song name
# A B C D E F G H I J K L M N O P Q R S T U V W X Y Z

The Red Jumpsuit Apparatus - Kins And Carroll tab

Help us improve GuitareTab! Take a short survey!
Kins and Carroll
The Red Jumpsuit Apparatus
Demo CD

Tuning: Drop D (you could play standard, but it's easier in drop D)

Both guitars in this song basically play the same thing, but at the begining there are 
guitars and a third gtr palm muting (this is really Elias Riedy, but when they mixed it 
made him play two tracks)

Intro:
Gtr 1                 x2
|-----------------------|
|-----------------------|
|--10-101010/9-9999999--|
|--x--x-x-x----xxxxxxx--|
|--8--8-8-8-/7-7777777--|
|-----------------------|

Gtr.2 Plays that same along with gtr.1 (reapeat 'til pre-verse)

Gtr.3
   PM....   x4
|--------------|
|--------------|
|-----------5--|
|--333-333--5--|
|--333-333--3--|
|--333-333-----|

Pre-Verse:
Both
|---------------------|
|---------------------|
|--55-55-55-55-4-4-5--|
|--55-55-55-55-4-4-5--|
|--33-33-33-33-2-2-3--|
|---------------------|

Verse x2
   PM..........    PM....
|-----------------------------------|
|-----------------------------------|
|--555555555555-55-555555-55--55----|
|--555555555555-xx-555555-xx--xx-5--|
|--333333333333-33-333333-33--33-5--|
|--------------------------------5--|
1. I sit around and think about
2. I wonder what you dream about

   PM..........    PM....
|----------------------------------|
|----------------------------------|
|-------------------------------5--|
|--555555555555-55-555555-33-33-5--|
|--555555555555-xx-555555-xx-xx-3--|
|--555555555555-55-555555-33-33----|
1. All the times we shared all the times
2. and now it's starting to unwind all the time

Pre-chorus
|---------------------|
|---------------------|
|--5-----55-55--------|
|--5-----xx-xx--5-----|
|--3-----33-33--5-----|
|---------------5-----|
you broke my heart, you broke my heart again

   PM.......................
|-----------------------------|
|-----------------------------|
|-----------------------------|
|--333333333333-555555555555--|
|--333333333333-555555555555--|
|--333333333333-555555555555--|
and now I know oh, oh

Chorus                            x2
|-----------------------------------|
|-----------------------------------|
|--5555-----------------------5555--|
|--5555--5555--3---3333--5555-xxxx--|
|--3333--5555--3---3333--3333-3333--|
|--------5555--3---3333-------------|
If this a test,
and going to fail it my best
the only way to stay true
and this is my destiny
and there is no helping me
life is bitter sweet

Verse x2
1.Things change although they seem the same
and there'll be no more waiting for your lies.
2.I found someone else just like you
and now it's starting to unwind
all the time.

Pre-chorus
We fell apart
you broke my heart agian
and now I know oh, oh

Chorus x2
If this a test,
and going to fail it my best
the only way to stay true
and this is my destiny
and there is no helping me
life is bitter sweet

Bridge                                                           x2
|---------------------------------------------------------------------|
|---------------------------------------------------------------------|
|-5-5-5-5-5-5-5-5-----------------------------------------------------|
|-5-5-5-5-5-5-5-5--5-5-5-5-5-5-5-5--3-3-3-3-3-3-3-3--5-5-5-5-5-5-5-5--|
|-3-3-3-3-3-3-3-3--5-5-5-5-5-5-5-5--3-3-3-3-3-3-3-3--3-3-3-3-3-3-3-3--|
|------------------5-5-5-5-5-5-5-5--3-3-3-3-3-3-3-3-------------------|
You say it's time to get over the pain
I still I still love her.
You say it's time to get over the pain,
I still I still love her

|----------------------------------------------------------------------|
|----------------------------------------------------------------------|
|-5555555555555555-----------------------------------------------------|
|-5555555555555555-5555555555555555-3333333333333333-5555555555555555--|
|-3333333333333333-5555555555555555-3333333333333333-3333333333333333--|
|------------------5555555555555555-3333333333333333-------------------|
Yeah. yeah,
I still love her.

Chorus
If this a test,
And going to fail it my best
The only way to stay true
And this is my destiny
And there is no helping me
Life is bitter sweet

outro:                                                              x2
|---------------------------------------------------------------------|
|---------------------------------------------------------------------|
|-5-5-5-5-5-5-5-5-----------------------------------------------------|
|-5-5-5-5-5-5-5-5--5-5-5-5-5-5-5-5--3-3-3-3-3-3-3-3--5-5-5-5-5-5-5-5--|
|-3-3-3-3-3-3-3-3--5-5-5-5-5-5-5-5--3-3-3-3-3-3-3-3--3-3-3-3-3-3-3-3--|
|------------------5-5-5-5-5-5-5-5--3-3-3-3-3-3-3-3-------------------|
You say it's time to get over the pain
I still I still love her.
You say it's time to get over the pain,
I still I still love her

|----------------------------------------------------|
|----------------------------------------------------|
|-5555555555555555--------------------------------5--|
|-5555555555555555-5555555555555555-3-----3-----3-5--|
|-3333333333333333-5555555555555555-3-----3-----3-3--|
|------------------5555555555555555-3-----3-----3----|
I still love her.

Emjoy dudes. if you want anymore songs from the demo cd I'll work on them ASAP.
Related for Kins And Carroll tab