Song name
# A B C D E F G H I J K L M N O P Q R S T U V W X Y Z

The Red Paintings - We Belong In The Sea tab

This tab is just the chords, not any of the piano fills. But it's good to play a simple 
of the song. I didn't tab the end bit. Sorry.


e----------------------------------|
B----------------------------------|
G--8---8---6---6---4---4---6---6---|
D--8---8---6---6---4---4---6---6---|
A--6---6---4---4---2---2---4---4---|
E----------------------------------|
There is nothing in me, that you can't take away
I'm as dead as the water, in a dried up lake

Too many kids in here have hat tops and hammers as well
The cellar door's blown to bits, I keep my cool knowing it well, knowing it well

Inside the sea we go, a million things I wish I'd said have been and gone, they're lost
We paint our world apart, we're closing up, we think we've got it all worked out, but we don't

Too many kids in here have hat tops and hammers as well
The cellar door's blown to bits I keep my cool knowing it well, knowing it well
Knowing it well

e------------------------------------------------------------------------|
B------------------------------------------------------------------------|
G------8---6-------8---6-------8---6-------------------------------------|
D--6---8---6---6---8---6---6---8---6---6---6---4---4---6---8---11---13---|
A--6---6---4---6---6---4---6---6---4---6---6---4---4---6---8---11---13---|
E--4-----------4-----------4-----------4---4---2---2---4---6---9----11---|
We belong in the sea, with you

e----------------------------------|
B----------------------------------|
G--8---8---6---6---4---4---6---6---|
D--8---8---6---6---4---4---6---6---|
A--6---6---4---4---2---2---4---4---|
E----------------------------------|
Everything's changing, I can't believe I'm losing myself
The world we rent falls to bits, the sea shows up to prove we're in hell
Everything's changing, I can't believe I'm losing myself
The world we rent falls to bits, the sea shows up to prove we're in hell
To prove we're in hell
Tap to rate this tab
 
# A B C D E F G H I J K L M N O P Q R S T U V W X Y Z