Guitaretab - guitar tabs
Song name
# A B C D E F G H I J K L M N O P Q R S T U V W X Y Z

The Red Paintings - Streets Fell Into My Window tab

    
      h - hammer on 
      p - pull off 
      b - bend string up
      r - release bend
      / - slide up
      \ - slide down
      v - vibrato (sometimes written as ~)
      t - right hand tap
      x - play 'note' with heavy damping

Intro: (0:30)
|--------------------------------------------------|
|-----7-----7-----7-----7-----7-----7-----7-----7--|
|--8-----8-----8-----8-----8-----8-----8-----8-----|
|--------------------------------------------------|
|--------------------------------------------------|
|--------------------------------------------------|
  PM---------------------------------------------|

                                    1st Time
|--------------------------|--------------------------|
|-----7-----7-----7-----7--|-----7-----7-----7-----7--|
|--7-----7-----7-----7-----|--7-----7-----7-----7-----|
|--------------------------|--------------------------|
|--------------------------|--------------------------|
|--------------------------|--------------------------|
  PM--------------------|x2 PM----------------------| 

         2nd Time
|--------------------------|
|-----7-----7-----7-----7--|
|--5-----5-----5-----5-----|
|--------------------------|
|--------------------------|
|--------------------------|
  PM----------------------|


Verse: (0:45)
|--------------------------------------------------|
|-----7-----7-----7-----7-----7-----7-----7-----7--|
|--8-----8-----8-----8-----8-----8-----8-----8-----|
|--------------------------------------------------|
|--------------------------------------------------|
|--------------------------------------------------|
[ Tab from: http://www.guitaretab.com/t/the-red-paintings/91481.html ]
                                    1st Time
|--------------------------|--------------------------|
|-----7-----7-----7-----7--|-----7-----7-----7-----7--|
|--7-----7-----7-----7-----|--7-----7-----7-----7-----|
|--------------------------|--------------------------|
|--------------------------|--------------------------|
|--------------------------|--------------------------|

         2nd Time
|--------------------------|
|-----7-----7-----7-----7--|
|--5-----5-----5-----5-----|
|--------------------------|
|--------------------------|
|--------------------------|

Chorus: (1:45)
|----------------------------------------------------------------|
|----------------------------------------------------------------|
|----------------------------------------------------------------|
|----------------------------------------------------------------|
|--8-8-8-8---12-12-12-12--8-8-8-8---12-12-12-12---5-5-5-5--------|
|--6-6-6-6---10-10-10-10--6-6-6-6---10-10-10-10---3-3-3-3--------|

|------------------------------------|
|------------------------------------|
|------------------------------------|
|------------------------------------|
|--7-7-7-7---8-8-8---10-10-10-10-10--|
|--5-5-5-5---6-6-6----8--8--8--8--8--|
                (Not exact strum pattern)

Bridge:
|-----------------------------|
|--7(x14)---7-(x8)---7-(x8)--|
|--8---------7--------5-------|
|-----------------------------|
|-----------------------------|
|-----------------------------|


Intro  x1 (0:30)
Verse  x2 (0:45)
Verse  x1 (1:30)
Chorus x1 (1:45)
Verse  x1 (2:08)
Verse  x1 (2:27)
Verse  x2 (2:53) (slightly altered picking pattern)
Chorus x1 (3:22)
Bridge x2 (3:45)
Chorus x1 (4:30)
Verse  x3 (4:45)
Related for Streets Fell Into My Window tab