Song name
# A B C D E F G H I J K L M N O P Q R S T U V W X Y Z

The Red Shore - The Valentines Day Massacre tab

Song: The Valentines Day Massacre
Artist: The Red Shore
Tuning: Dropped B
Tabbed by Domenic Colpo

This is what I've got for it so far. 
I'm pretty sure it's right, but some parts might be a little off, 
they won't be too hard to fix though.

|---------------------------------------------------------------------------------|
|---------------------------------------------------------------------------------|
|---------------------------------------------------------------------------------|
|-----10-10-9-9-----------10-10-9-9-----------10-10-9-9-----------10-10-9-9-------|
|-7-7-----------10-10-7-7-----------10-10-6-6-----------10-10-6-6-----------10-10-|
|---------------------------------------------------------------------------------| x4

|---------------------------------------------------------------------------------|
|---------------------------------------------------------------------------------|
|---------------------------------------------------------------------------------|
|-----10-10-9-9-----------10-10-9-9-10-10-7-7-9-9-5-5-7-7-----10-10-9-9-----------|
|-7-7-----------10-10-7-7---------------------------------7-7-----------10-10-7-7-|
|---------------------------------------------------------------------------------| ---\
                                                                                        \
                                                                                         x2
                                                                                        /
----------------------------------------|  --------------------------------------------/
----------------------------------------|
----------------------------12-12-------|
10-10-9-9-10-10-12-12-10-10-------10-10-|
----------------------------------------|
----------------------------------------|

|-----------------------------------------|
|-----------------------------------------|
|-----------------------------------------|
|-----10-10-9-9-----------10-10-9-9-------|
|-7-7-----------10-10-7-7-----------10-10-|
|-----------------------------------------|

|-----------------|
|-----------------|
|-----------------|
|-0-0-0-0-0-0-0-0-|
|-0-0-0-0-0-0-0-0-|
|-0-0-0-0-0-0-0-0-|
 |------P.M------|

|------------------|
|------------------|
|------------------|
|------------------|
|-6-6-9-9-5-5-8-8--|
|------------------| x?


This next part I'm not to sure on, 
but I think it goes something like this:

|-------------------|
|-------------------|
|-------------------|
|-------------------|
|-------------------|
|-7-7-10-10-6-6-9-9-| x?
 |-------P.M-------|

I think you play the last two riffs one after the other twice, 
then it goes into a breakdown, I haven't figured it out yet, 
but it's just two chords and a pinch harmonic. 

That's all I've got at the moment, I'll put the rest up when 
i figure it out or someone puts a guitar pro up.
Thanks to Jamie and Sabian for their help.
Tap to rate this tab
# A B C D E F G H I J K L M N O P Q R S T U V W X Y Z