Song name
# A B C D E F G H I J K L M N O P Q R S T U V W X Y Z

The Red Shore - Flesh Couture tab

Hey this is my first tab.
sounds right to me, if you have any criticisms
or corrections please email me at P-Tizzle@hiptop.com.au
also I have not yet worked out the intro bit
im still fidling round with it.
and i should have a vid up of me playing it soon.
Do not steal my tab as your own!
enjoy.

c#---------------------------------------------------|
g#---------------------------------------------------|
 E---------------------------------------------------|
 B---------------------------------------------------|
 F-5-1---4-0---5-1---4-0---5-1---4-0---8-5---7-4-----|
 B-----0-----0-----0-----0-----0-----0-----0-----0---|


c#---------------------------------------------------|
g#---------------------------------------------------|
 E---------------------------------------------------|
 B---------------------------------------------------|
 F-5-1---4-0---5-1---4-0---5-1---4-0---12-8---10-7---|
 B-----0-----0-----0-----0-----0-----0------0------0-|

c#---------------------------------------------------|
g#---------------------------------------------------|
 E---------------------------------------------------|
 B---------------------------------------------------|
 F-5-1---4-0---5-1---4-0---5-1---4-0---8-5---7-4-----|
 B-----0-----0-----0-----0-----0-----0-----0-----0---|


c#---------------------------------------------------|
g#---------------------------------------------------|
 E---------------------------------------------------|
 B---------------------------------------------------|
 F-5-1---4-0---5-1---4-0---5-1---4-0---12-8---10-7---|
 B-----0-----0-----0-----0-----0-----0------0------0-|

c#---------------------------------------|
g#---------------------------------------|
 E---------------------------------------|
 B-------8-7-----------6-9-6-------6-----|
 F-0-0-0-5-4-0-0-0-8-7-------8-5-8-------|
 B-0-0-0-----0-0-0-7-7-------------------|

c#---------------------------------------|
g#---------------------------------------|
 E------------------------------7-10-----|
 B-------8-7----------------6-9----------|
 F-0-0-0-5-4-0-0-0-8-7--5-8--------------|
 B-0-0-0-----0-0-0-7-7-------------------|

c#---------------------------------------|
g#---------------------------------------|
 E-----------------------------7---------|
 B-------8-7-------------9-6-9---9-6-----|
 F-0-0-0-5-4-0-0-0-8-7-------------------|
 B-0-0-0-----0-0-0-7-7-------------------|

c#--------------------------------8-12-8-|
g#------------------------------10-------|
 E----------------------------10---------|
 B-------8-7----------------10-----------|
 F-0-0-0-5-4-0-0-0-8-7--8-12-------------|
 B-0-0-0-----0-0-0-7-7-------------------|

c#---------------------------------------|
g#---------------------------------------|
 E---------------------------------------|
 B-------8-7-----------------------------|
 F-0-0-0-5-4-0-0-0-8-7--0-0-0-0-0-0------|
 B-0-0-0-----0-0-0-7-7--0-0-0-0-0-0------|

c#---------------------------------------|
g#---------------------------------------|
 E------------------------------7-10-----|
 B-------8-7----------------6-9----------|
 F-0-0-0-5-4-0-0-0-8-7--5-8--------------|
 B-0-0-0-----0-0-0-7-7-------------------|

c#---------------------------------------|
g#---------------------------------------|
 E---------------------------------------|
 B-------8-7-----------------------------|
 F-0-0-0-5-4-0-0-0-8-7--0-0-0-0-0-0------|
 B-0-0-0-----0-0-0-7-7--0-0-0-0-0-0------|

c#---------------------------------------|
g#--------------------------9-12-18-9----|
 E---------------------7-10-----------10-|
 B-------8-7-----------------------------|
 F-0-0-0-5-4-0-0-0-8-7-------------------|
 B-0-0-0-----0-0-0-7-7-------------------|

c#---------------------------------------|
g#---------------------------------------|
 E---------------------------------------|
 B---------------------------------------|
 F-000-000-000-000-0-0-0-0-0-0-----------|
 B-000-000-000-000-0-0-0-0-0-0--3--------|
                                ph

c#---------------------------------------|
g#---------------------------------------|
 E---------------------------------------|
 B---------------------------------------|
 F-000-000-000-000-0-0-0-0-0-0-----------|
 B-000-000-000-000-0-0-0-0-0-0--9--------|
                                ph

c#---------------------------------------|
g#---------------------------------------|
 E---------------------------------------|
 B---------------------------------------|
 F-000-000-000-000-0-0-0-0-0-0-----------|
 B-000-000-000-000-0-0-0-0-0-0--3--------|
                                ph

c#---------------------------------------|
g#---------------------------------------|
 E---------------------------------------|
 B---------------------------------------|
 F-000-000-000-000-0-0-0-0-0-0-----------|
 B-000-000-000-000-0-0-0-0-0-0--9--------|
                                ph

c#---------------------------------------|
g#---------------------------------------|
 E---------------------------------------|
 B---------------------------------------|
 F-000-000-000-000-0-0-0-0-0-0-----------|
 B-000-000-000-000-0-0-0-0-0-0-----------|


c#---------------------------------------|
g#---------------------------------------|
 E---------------------------------------|
 B---------------------------------------|
 F-000-000-000-000-0-0-0-0-0-0-----------|
 B-000-000-000-000-0-0-0-0-0-0-----------|


c#---------------------------------------|
g#---------------------------------------|
 E-------------------------7-10----------|
 B- -------6-9---------6-9------6-9------|
 F-----5-8---------5-8-------------------|
 B-0-0---------0-0-----------------------|

c#---------------------------------------|
g#------------------------------8-11-----|
 E-------------------------7-10----------|
 B- -------6-9---------6-9---------------|
 F-----5-8---------5-8-------------------|
 B-0-0---------0-0-----------------------|

c#---------------------------------------|
g#---------------------------------------|
 E-------------------------7-10----------|
 B- -------6-9---------6-9------6-9------|
 F-----5-8---------5-8-------------------|
 B-0-0---------0-0-----------------------|

c#---------------------------------------|
g#------------------------------8-11-----|
 E-------------------------7-10----------|
 B- -------6-9---------6-9---------------|
 F-----5-8---------5-8-------------------|
 B-0-0---------0-0-----------------------|

c#---------------------------------------|
g#---------------------------------------|
 E-------------------------7-10----------|
 B- -------6-9---------6-9------6-9------|
 F-----5-8---------5-8-------------------|
 B-0-0---------0-0-----------------------|

c#---------------------------------------|
g#------------------------------8-11-----|
 E-------------------------7-10----------|
 B- -------6-9---------6-9---------------|
 F-----5-8---------5-8-------------------|
 B-0-0---------0-0-----------------------|

c#---------------------------------------|
g#---------------------------------------|
 E-------------------------7-10----------|
 B- -------6-9---------6-9------6-9------|
 F-----5-8---------5-8-------------------|
 B-0-0---------0-0-----------------------|

c#---------------------------------------|
g#------------------------------8-11-----|
 E-------------------------7-10----------|
 B- -------6-9---------6-9---------------|
 F-----5-8---------5-8-------------------|
 B-0-0---------0-0-----------------------|

c#---------------------------------------|
g#---------------------------------------|
 E-------------------------7-10----------|
 B- -------6-9---------6-9------6-9------|
 F-----5-8---------5-8-------------------|
 B-0-0---------0-0-----------------------|

c#---------------------------------------|
g#------------------------------8-11-----|
 E-------------------------7-10----------|
 B- -------6-9---------6-9---------------|
 F-----5-8---------5-8-------------------|
 B-0-0---------0-0-----------------------|

c#---------------------------------------|
g#---------------------------------------|
 E---------------------------------------|
 B- -------------------------------------|
 F-----5-8-4-7-----1-5-0-4-----0-1-------|
 B-0-0---------0-0---------0-0-----------|

c#---------------------------------------|
g#------------------------------8-11-----|
 E-------------------------7-10----------|
 B- -------------------6-9---------------|
 F-----5-8-4-7-----5-8-------------------|
 B-0-0---------0-0---------0-0-----------|

c#---------------------------------------|
g#---------------------------------------|
 E---------------------------------------|
 B- -------------------------------------|
 F-----5-8-4-7-----1-5-0-4-----0-1-------|
 B-0-0---------0-0---------0-0-----------|

c#---------------------------------------|
g#------------------------------8-11-----|
 E-------------------------7-10----------|
 B- -------------------6-9---------------|
 F-----5-8-4-7-----5-8-------------------|
 B-0-0---------0-0-----------------------|

c#----------------------------------------|
g#----------------------------------------|
 E----10-13-9-12--------------------------|
 B------------------10-13-9-12-----8-11---|
 F----------------------------------------|
 B-0-0-----------0-0-----------0-0--------|

c#------------------------------------------|
g#------------------------------------------|
 E----10-13-9-12-----8-11-7-10--------------|
 B-----------------------------8-11-7-10----|
 F------------------------------------------|
 B-0-0-----------0-0------------------------|

c#----------------------------------------|
g#----------------------------------------|
 E----10-13-9-12--------------------------|
 B------------------10-13-9-12-----8-11---|
 F----------------------------------------|
 B-0-0-----------0-0-----------0-0--------|

c#------------------------------------------|
g#------------------------------------------|
 E----10-13-9-12-----8-11-7-10--------------|
 B-----------------------------8-11-7-10----|
 F------------------------------------------|
 B-0-0-----------0-0------------------------|

c#--------------------|
g#--------------------|
 E--------------------|
 B-7-10-6-9-----------|
 F----------7-10-6-9--|
B---------------------|

c#----------------------------------|
g#----------------------------------|
 E----------------------------------|
 B----------------------------------|
 F-5-5-5-5-1-1-1-1-4-4-4-4-0-0-0-0--|
 B----------------------------------|

c#----------------------------------|
g#----------------------------------|
 E----------------------------------|
 B----------------------------------|
 F-5-5-5-5-1-1-1-1-4-4-4-4-0-0-0-0--|
 B----------------------------------|

c#----------------------------------|
g#----------------------------------|
 E----------------------------------|
 B----------------------------------|
 F-O-N-E---B-A-R---R-E-S-T----------|
 B----------------------------------|

c#----------------------------------|
g#----------------------------------|
 E----------------------------------|
 B----------------------------------|
 F-5-5-5-5-1-1-1-1-4-4-4-4-0-0-0-0--|
 B----------------------------------|

c#----------------------------------|
g#----------------------------------|
 E----------------------------------|
 B----------------------------------|
 F-5-5-5-5-1-1-1-1-4-4-4-4-0-0-0-0--|
 B----------------------------------|

c#----------------------------------|
g#----------------------------------|
 E----------------------------------|
 B----------------------------------|
 F-5-5-5-5-1-1-1-1-4-4-4-4-0-0-0-0--|
 B----------------------------------|

c#------------------------------------|
g#------------------------------------|
 E-----------------------10-----------|
 B-------6-----------6-9--------------|
 F-8-5-8---8-5-8-5-8------------------|
 B------------------------------------|

c#----------------------------------|
g#----------------------------------|
 E----------------------------------|
 B----------------------------------|
 F-5-5-5-5-1-1-1-1-4-4-4-4-0-0-0-0--|
 B----------------------------------|

c#----------------------------------|
g#----------------------------------|
 E----------------------------------|
 B----------------------------------|
 F-5-5-5-5-1-1-1-1-4-4-4-4-0-0-0-0--|
 B----------------------------------|

c#----------------------------------|
g#----------------------------------|
 E----------------------------------|
 B----------------------------------|
 F-5-5-5-5-1-1-1-1-4-4-4-4-0-0-0-0--|
 B----------------------------------|

c#----------------------------------|
g#----------------------------------|
 E----------------------------------|
 B----------------------------------|
 F-5-5-5-5-1-1-1-1-4-4-4-4-0-0-0-0--|
 B----------------------------------|

c#----------------------------------|
g#----------------------------------|
 E----------------------------------|
 B----------------------------------|
 F-5-5-5-5-1-1-1-1-4-4-4-4-0-0-0-0--|
 B----------------------------------|

c#----------------------------------|
g#----------------------------------|
 E----------------------------------|
 B----------------------------------|
 F-5-5-5-5-1-1-1-1-4-4-4-4-0-0-0-0--|
 B----------------------------------|

c#----------------------------------|
g#----------------------------------|
 E----------------------------------|
 B----------------------------------|
 F-5-5-5-5-1-1-1-1-4-4-4-4-0-0-0-0--|
 B----------------------------------|
   T        T        T        T
c#-21-10-13-21-10-13-21-10-13-21-10-13-|
g#-------------------------------------|
 E-------------------------------------|
 B-------------------------------------|
 F-------------------------------------|
 B-------------------------------------|


c#----------------------------------|
g#----------------------------------|
 E----------------------------------|
 B----------------------------------|
 F-5-5-5-5-1-1-1-1-4-4-4-4-0-0-0-0--|
 B----------------------------------|

c#----------------------------------|
g#----------------------------------|
 E----------------------------------|
 B----------------------------------|
 F-5-5-5-5-1-1-1-1-4-4-4-4-0-0-0-0--|
 B----------------------------------|

c#----------------------------------|
g#----------------------------------|
 E----------------------------------|
 B----------------------------------|
 F-5-5-5-5-1-1-1-1-4-4-4-4-0-0-0-0--|
 B----------------------------------|

c#----------------------------------|
g#----------------------------------|
 E-7-10-7-6-9-6---------------------|
 B--------------6-9-6-------6-------|
 F--------------------8-5-8---------|
 B----------------------------------|

c#---------------------------------------------------|
g#---------------------------------------------------|
 E---------------------------------------------------|
 B---------------------------------------------------|
 F-5-1---4-0---5-1---4-0---5-1---4-0---8-5---7-4-----|
 B-----0-----0-----0-----0-----0-----0-----0-----0---|


c#---------------------------------------------------|
g#---------------------------------------------------|
 E---------------------------------------------------|
 B---------------------------------------------------|
 F-5-1---4-0---5-1---4-0---5-1---4-0----3------------|
 B-----0-----0-----0-----0-----0-----0---------------|

c#---------------------------------------------------|
g#---------------------------------------------------|
 E---------------------------------------------------|
 B---------------------------------------------------|
 F-5-1---4-0---5-1---4-0---5-1---4-0---8-5---7-4-----|
 B-----0-----0-----0-----0-----0-----0-----0-----0---|


c#---------------------------------------------------|
g#---------------------------------------------------|
 E---------------------------------------------------|
 B---------------------------------------------------|
 F-5-1---4-0---5-1---4-0---5-1---4-0---12-8---10-7---|
 B-----0-----0-----0-----0-----0-----0------0------0-|

c#-----10-13-10--------------------------------------|
g#--------------9-12-9-8-11-8-7-10-7-----------------|
 E-6-9-----------------------------------------------|
 B-5-8-----------------------------------------------|
 F-4-7-----------------------------------------------|
 B---------------------------------------------------|

c#-----10-13-10-17-10-13-17-10-13-20-10-13-----------|
g#---------------------------------------------------|
 E-6-9-----------------------------------------------|
 B-5-8-----------------------------------------------|
 F-4-7-----------------------------------------------|
 B---------------------------------------------------|

c#---------------------------------------------------|
g#---------------------------------------------------|
 E-6-9--10-7---9-6--------------7--------------------|
 B-5-8-------9-----8--9-6---6-9----------------------|
 F-4-7--------------------7--------------------------|
 B---------------------------------------------------|


c#-----10-13-10-17-10-13-17-10-13-20-10-13-----------|
g#---------------------------------------------------|
 E-6-9-----------------------------------------------|
 B-5-8-----------------------------------------------|
 F-4-7-----------------------------------------------|
 B---------------------------------------------------|

  A.H
c#-8-------------------------------------------------|
g#-12------------------------------------------------|
 E---------------------------------------------------|
 B---------------------------------------------------|
 F--------------0----------------6---5---------------|
 B--------------0----------------5---4---------------|

c#---------------------------------------------------|
g#---------------------------------------------------|
 E---------------------------------------------------|
 B---------------------------------------------------|
 F-0-0-0-0-0-0---0-0-0-0-0--0-0-0-0----6--5----------|
 B-0-0-0-0-0-0---0-0-0-0-0--0-0-0-0----5--4----------|

c#---------------------------------------------------|
g#---------------------------------------------------|
 E---------------------------------------------------|
 B---------------------------------------------------|
 F-0-0-0-0-0-0---0-0-0-0-0--0-0-0-0----6--5----------|
 B-0-0-0-0-0-0---0-0-0-0-0--0-0-0-0----5--4----------|


c#---------------------------------------------------|
g#---------------------------------------------------|
 E---------------------------------------------------|
 B---------------------------------------------------|
 F-0-0-0-0-0-0---0-0-0-0-0--0-0-0-0----6--5----------|
 B-0-0-0-0-0-0---0-0-0-0-0--0-0-0-0----5--4----------|

c#---------------------------------------------------|
g#---------------------------------------------------|
 E---------------------------------------------------|
 B---------------------------------------------------|
 F-0-0-0-0-0-0---0-0-0-0-0--0-0-0-0----0-------------|
 B-0-0-0-0-0-0---0-0-0-0-0--0-0-0-0----0-------------|


c#---------------------------------13-10------10-17-14------14-|
g#--------------------------------------12--12--------16--16---|
 E----------------------------------------13------------17-----|
 B-------------------------------------------------------------|
 F-0-0-0-0-0-0---0-0-0-0-0--0-0-0-0----------------------------|
 B-0-0-0-0-0-0---0-0-0-0-0--0-0-0-0----------------------------|

c#---------------------------------13-10------10-17-14---------|
g#--------------------------------------12--12--------16-------|
 E----------------------------------------13------------17-----|
 B-------------------------------------------------------------|
 F-0-0-0-0-0-0---0-0-0-0-0--0-0-0-0----------------------------|
 B-0-0-0-0-0-0---0-0-0-0-0--0-0-0-0----------------------------|
c#---------------------------------13-10------10-17-14------14-|
g#--------------------------------------12--12--------16--16---|
 E----------------------------------------13------------17-----|
 B-------------------------------------------------------------|
 F-0-0-0-0-0-0---0-0-0-0-0--0-0-0-0----------------------------|
 B-0-0-0-0-0-0---0-0-0-0-0--0-0-0-0----------------------------|

c#-------------------------------------------------------------|
g#-------------------------------------------------------------|
 E-------------------------------------------------------------|
 B-------------------------------------------------------------|
 F-0-0-0-0-0-0---0-0-0-0-0--0-0-0-0----0-----------------------|
 B-0-0-0-0-0-0---0-0-0-0-0--0-0-0-0----0-----------------------|
Tap to rate this tab
 
# A B C D E F G H I J K L M N O P Q R S T U V W X Y Z