Guitaretab - guitar tabs
Song name
# A B C D E F G H I J K L M N O P Q R S T U V W X Y Z

The Red Shore - Flesh Corture tab

Hay i think i can nail this intro and the other guy didnt have it so here goes
Drop B tuning

Guitar One
|------------------------------------------------------|
|----------------------------11-12-14p-12p-11----------|
|-------------------10-12-14------------------12-10~---|
|----------10-12-14------------------------------------|
|-10-12-14---------------------------------------------|
|------------------------------------------------------|

Guitar Two
|-------------------------------------------------|
|-------------------------6--7--9p---7p--6--------|
|-----------------6--7--9------------------8-7~---|
|---------5--7--9---------------------------------|
|-5--7--9-----------------------------------------|
|-------------------------------------------------|
[ Tab from: http://www.guitaretab.com/t/the-red-shore/176487.html ]
Guitar One
|---------------------------------------------------------------------------------|
|---------------------------------------------------------------------------------|
|-14-12-10--14-12-10--15-14-12--15-14-12--17-15-14--17-15-15--19-17-15--19-17-15--|
|---------------------------------------------------------------------------------|
|---------------------------------------------------------------------------------|
|---------------------------------------------------------------------------------|

Guitar Two
|---------------------------------------------------------------------------------|
|---------------------------------------------------------------------------------|
|-------------------------------------------------------------19-17-15--19-17-15--|
|-17-16-14--17-16-14--19-17-16--19-17-16--21-19-17--21-19-17----------------------|
|---------------------------------------------------------------------------------|
|---------------------------------------------------------------------------------|

Guitar One
|-19h2219----------------------------19-20*------|
|---------20----------------------20-------------|
|------------19----------------20----------------|
|---------------21----------21-------------------|
|------------------21----21----------------------|
|---------------------22-------------------------|

Related for Flesh Corture tab