Guitaretab - guitar tabs
Song name
# A B C D E F G H I J K L M N O P Q R S T U V W X Y Z

The Red Shore - The Garden Of Impurity tab

-------------------------------------------------------------------------------
                       The Garden Of Impurity - The Red Shore
-------------------------------------------------------------------------------
Tabbed by: Mike0
Email: mikesbuffaloes@hotmail.com

Tuning: Drop B

Hi this is my first tab so sorry in advance if i made any mistakes, i figured
out as much of it as i could by ear ill try to complete the tab when i make 
time to figure out the rest of it

c#|--------------------------------------------------------------------------|
g#|--------------------------------------------------------------------------|
E|---------------------------------------------------------------------------|
B|---------------------------------------------------------------------------|
F|---------222222222222----------------3-2-1---------------------------------|
B|000000000------------33333333333333--3-2-1-------------------------------- pm-----

c#|--------------------------------------------------------------------------|
g#|--------------------------------------------------------------------------|
E|---------------------------------------------------------------------------|
B|---------------------------------------6h9p6-------------------------------|
F|---------222222222222-------------5h8p5------------------------------------|
B|000000000------------333333333333------------------------------------------|

c#|--------------------------------------------------------------------------|
g#|--------------------------------------------------------------------------|
E|---------------------------------------------------------------------------|
B|---------------------------------------------------------------------------|
F|---------222222222222----------------3-2-1---------------------------------|
B|000000000------------33333333333333--3-2-1--------------------------------- pm-----

c#|--------------------------------------------------------------------------|
g#|--------------------------------------------------------------------------|
E|---------------------------------------------------------------------------|
B|---------------------------------------------------------------------------|
F|---------22222222222-------------------------------------------------------|
B|000000000-----------33333333333333333333-----------------------------------|

c#|--------------------------------------------------------------------------|
g#|--------------------------------------------------------------------------|
E|---------------------------------------------------------------------------|
B|-------------------------------------8h11p8-7h10p7-------------------------|
F|2h5p2-1h4p1--8h11-7h10p7-2h5p2-1h4p1---------------2h5p2-1h4p1--8h11-7h10p7|
B|---------------------------------------------------------------------------|
[ Tab from: http://www.guitaretab.com/t/the-red-shore/181260.html ]
c#|--------------------------------------------------------------------------|
g#|------------11h14---------------------------------------------------------|
E|--------10h13-----10h13----------------------------------------------------|
B|----9h12---------------9h12------------------------------------------------|
F|8h11-----------------------------------------------------------------------|
B|---------------------------------------------------------------------------|

c#|--------------------------------------------------------------------------|
g#|--------------------------------------------------------------------------|
E|---------------------------------------------------------------------------|
B|-------------------------------------8h11p8-7h10p7-------------------------|
F|2h5p2-1h4p1--8h11-7h10p7-2h5p2-1h4p1---------------2h5p2-1h4p1--8h11-7h10p7|
B|---------------------------------------------------------------------------|

c#|--------------------------------------------------------------------------|
g#|------------11h14---------------------------------------------------------|
E|--------10h13-----10h13----------------------------------------------------|
B|----9h12---------------9h12------------------------------------------------|
F|8h11-----------------------------------------------------------------------|
B|---------------------------------------------------------------------------|

c#|--------------------------------------------------------------------------|
g#|--------------------------------------------------------------------------|
E|---------------------------------------------------------------------------|
B|-------------------------------------8h11p8-7h10p7-------------------------|
F|2h5p2-1h4p1--8h11-7h10p7-2h5p2-1h4p1---------------2h5p2-1h4p1--8h11-7h10p7|
B|---------------------------------------------------------------------------|

c#|--------------------------------------------------------------------------|
g#|------------11h14---------------------------------------------------------|
E|--------10h13-----10h13----------------------------------------------------|
B|----9h12---------------9h12------------------------------------------------|
F|8h11-----------------------------------------------------------------------|
B|---------------------------------------------------------------------------|

c#|--------------------------------------------------------------------------|
g#|--------------------------------------------------------------------------|
E|---------------------------------------------------------------------------|
B|-------------------------------------8h11p8-7h10p7-------------------------|
F|2h5p2-1h4p1--8h11-7h10p7-2h5p2-1h4p1---------------2h5p2-1h4p1--8h11-7h10p7|
B|---------------------------------------------------------------------------|

c#|--------------------------------------------------------------------------|
g#|------------11h14-----------13-10----10-----------------------------------|
E|--------10h13-----10h13------------12----12-9-12-9----9--------------------|
B|----9h12---------------9h12------------------------11---11-8-11-8----8-----|
F|8h11--------------------------------------------------------------10---10-7|
B|---------------------------------------------------------------------------|


| /  slide up
| \  slide down
| h  hammer-on
| p  pull-off
| ~  vibrato
| +  harmonic
| x  Mute note
===============================================================================

Related for The Garden Of Impurity tab