Song name
# A B C D E F G H I J K L M N O P Q R S T U V W X Y Z

The Red Shore - I Only Smile When Youre Bleeding chords

Band: The Red Shore
Song: I Only Smile When You're Bleeding
Tuning: B F# B E G# C#

So APPARENTLY, these guys play on 7-string guitars. Since I didn't know that, I just 
it to a 6-string. Enjoy

Username: a_n00berthon
Em@il: tiki_crusader@hotail.com

* = palm mute
~ = hold note
b = bend
h = hammer on
p = pull off
\ = slide down
/ = slide up
ph = pinch harmonic

x8
|---------------------------------------------------|
|---------------------------------------------------|
|---------------------------------------------------|
|---------------------------------------------------|
|-------------------------8888-7777-5555------------|
|0000-3333-2222-8888-7777---------------------------|
{Its spread apart so its easier for you guys to read}

x4
|----------------------------------------------|
|----------------------------------------------|
|-------------------------10101010-9999-7777---|
|0000-3333-2222-8888-7777----------------------|
|----------------------------------------------|
|----------------------------------------------|

x8
|---------------------|
|---------------------|
|---------------------|
|---------------------|
|0-2-3-8-7-2-3-2ph----|
|0-2-3-8-7-2-3--------|
 * * * * * * *

x8                                      x2
|---------------------|                 |---------------------|
|---------------------|                 |---------------------|
|--7-5---7-5--7-------| After 4th play  |--7-5---7-5----------|
|---------------------|                 |------------6--------|
|---------------------|                 |---------------------|
|0-----0----0---------|                 |0-----0--------------|
 *     *    *                            *     *

x6
|---------------------------------------------------|
|---------------------------------------------------|
|---------------------------------------------------|
|---------------------------------------------------|
|-------------------------8888-7777-5555------------|
|0000-3333-2222-8888-7777---------------------------|

x2
|----------------------------------------------|
|----------------------------------------------|
|-------------------------10101010-9999-7777---|
|0000-3333-2222-8888-7777----------------------|
|----------------------------------------------|
|----------------------------------------------|


x8
|---------------------|
|---------------------|
|---------------------|
|---------------------|
|0-2-3-8-7-2-3-2ph----|
|0-2-3-8-7-2-3--------|
 * * * * * * *

While solo guitar is playing, you play. x2
|---------------------------|
|---------------------------|
|---------------------------|
|---------------------------|
|0-----------8----10----12--|
|0-----------8----10----12--|

Solo guitar plays
|/13----------------------------------|
|---11-10-----------------------------|
|--------12---9-10-12-10-9-10-9-------|
|-------------------------------10/12-|
|-------------------------------------|
|-------------------------------------|
Continues ...
|/13-12--13/15--13-15-17-15-13-15-13-------|
|------------------------------------13/15-|
|------------------------------------------|
|------------------------------------------|
|------------------------------------------|
|------------------------------------------|
Quick part
|-----------------------------17-20b---|
|------------------------17-19---------|
|----------------16-17-19--------------|
|--------15-17-19----------------------|
|15-17-19------------------------------|
|--------------------------------------|


{Played twice before you play} -->
|---------------------------------|----------------------|
|---------------------------------|----------------------|
|---------------------------------|----------------------|
|----8-8------8-8------8----------|----------------------|
|----7-7------7-7------7----------|---0-0-0-0-0-00-------|
|000-8-8--000-8-8--000-8----------|---0-0-0-0-0-00-------|
 ***      ***      ***                * * * * * **

Clean Guitar Bridge  x3                   x4
|---------------------------------|  |---------------------------------|
|---------------------------------|  |---------------------------------|
|-------5---------5---------------|  |-------5--------5----------------|
|---7-----7---7-----7---7---------|  |---7-----7---7----7---7----------|
|-----5-----5---5-----5-----------|  |-----5-----5---5----5------------|
|0--------------------------------|  |8--------------------------------|
    x1
|---------------------------------|
|-------------8-----6-----6-------|
|-------5-------5-----5-----5-----|
|---7-----7-------7-----7-----7---|
|-----5-----5---------------------|
|0--------------------------------|

|-----------------------------------------|
|-----------------------------------------|
|-----------------------------------------|
|-----------------------------------------|
|8-8-8-8-8-8-8-8-10-10-10-10-10-10-10-10--|
|8-8-8-8-8-8-8-8-10-10-10-10-10-10-10-10--|
 * * * * * * * * *  *  *  *  *  *  *  *
 x2
|-----------------------------------------------------------------------|
|-----------------------------------------------------------------------|
|10-10-10-9--9--9--5--5--5--7--5--3---------10-9-------------12-10-9----|
|X--X--X--X--X--X--X--X--X--X--X--X--------------8-------------------10-|
|8--8--8--7--7--7--3--3--3--5--3--1---8-8-8--------10-10-10-------------|
|-------------------------------------8-8-8--------10-10-10-------------|
x2
|------------------------------------------------------------------------|
|------------------------------------------------------------------------|
|10-10-10-9--9--9--12--12--12--14--14--14-------10-9-----------12-10-9---|
|X--X--X--X--X--X--X---X---X---X---X---X-------------8-----------------10|
|8--8--8--7--7--7--10--10--10--12--12--12-8-8-8--------10-10-10----------|
|-----------------------------------------8-8-8--------10-10-10----------|

|--------|                     |---------|
|--------|                     |---------|
|--------|                     |---------|
|0-------| Then Another one .. |0--------|
|0-------|                     |0--------|
|0-------|                     |0--------|

|------------------------------------|
|------------------------------------|
|------------------------------------|
|----------8---7---5-----3-5-3-2-3-2-|
|----8\7-----------------------------|
|0-0-----0---0---0---0-0-------------|
 * *     *   *   *   * *
|---------------------------------|
|---------------------------------|
|---------------------------------|
|----------8---7---5-----5/7-7-7--|
|----8\7--------------------------|
|0-0-----0---0---0---0-0----------|
 * *     *   *   *   * *
|------------------------------------|
|------------------------------------|
|------------------------------------|
|----------8---7---5-----3-5-3-2-3-2-|
|----8\7-----------------------------|
|0-0-----0---0---0---0-0-------------|
 * *     *   *   *   * *
|-------------------------------------------|
|------------------------7------------------|
|--------------------------10-8-7---8ph-----|
|----------8---7---5------------------------|
|----8\7------------------------------------|
|0-0-----0---0---0---0-0--------------------|
 * *     *   *   *   * *
|------------------------------------|
|------------------------------------|
|------------------------------------|
|----------8---7---5-----3-5-3-2-3-2-|
|----8\7-----------------------------|
|0-0-----0---0---0---0-0-------------|
 * *     *   *   *   * *
|---------------------------------|
|---------------------------------|
|---------------------------------|
|----------8---7---5-----5/7-7-7--|
|----8\7--------------------------|
|0-0-----0---0---0---0-0----------|
 * *     *   *   *   * *
|------------------------------------|
|------------------------------------|
|------------------------------------|
|----------8---7---5-----3-5-3-2-3-2-|
|----8\7-----------------------------|
|0-0-----0---0---0---0-0-------------|
 * *     *   *   *   * *
|-------------------------------------------|
|------------------------7------------------|
|--------------------------10-8-7---8ph-----|
|----------8---7---5------------------------|
|----8\7------------------------------------|
|0-0-----0---0---0---0-0--------------------|
 * *     *   *   *   * *
|------------------------------------|
|------------------------------------|
|------------------------------------|
|----------8---7---5-----3-5-3-2-3-2-|
|----8\7-----------------------------|
|0-0-----0---0---0---0-0-------------|
 * *     *   *   *   * *
|---------------------------------|
|---------------------------------|
|---------------------------------|
|----------8---7---5-----5/7-7-7--|
|----8\7--------------------------|
|0-0-----0---0---0---0-0----------|
 * *     *   *   *   * *
|------------------------------------|
|------------------------------------|
|------------------------------------|
|----------8---7---5-----3-5-3-2-3-2-|
|----8\7-----------------------------|
|0-0-----0---0---0---0-0-------------|
 * *     *   *   *   * *
|-------------------------------------------|
|------------------------7------------------|
|--------------------------10-8-7---8ph-----|
|----------8---7---5------------------------|
|----8\7------------------------------------|
|0-0-----0---0---0---0-0--------------------|
 * *     *   *   *   * *
  x4
|---------------------------|
|---------------------------|
|---------------------------|
|---------------------------|
|0-0-0----0-0-0--0-0--0-0-0-|
|0-0-0----0-0-0--0-0--0-0-0-|
 * * *    * * *  * *  * * *
  x3
|---------------------------|
|---------------------------|
|---------------------------|
|---------------------------|
|0-0-0----0-0-0--0-0--0-0-0-|
|1-1-1----1-1-1--1-1--1-1-1-|
 * * *    * * *  * *  * * *
Outro
|---------------------------|
|---------------------------|
|---------------------------|
|---------------------0-0-0-|
|0-0-0----0-0-0--0-0--0-0-0-|
|1-1-1----1-1-1--1-1--0-0-0-|
 * * *    * * *  * *  * * *

Well thats the tab. If you find any mistakes please comment on PM me so I can get it 
correct! Thanks, and please rate!
Tap to rate this tab
# A B C D E F G H I J K L M N O P Q R S T U V W X Y Z