Song name
# A B C D E F G H I J K L M N O P Q R S T U V W X Y Z

The Red Shore - The Garden Of Impurity tab

i dont really tab on here much but the other tabs made me sick a bit
firstly, red shore is tabbed in drop A
as is almost all deathcore music
secondly, this is the right way to play the intro,
this is how they play it live,
every other riff im not 100% sure..
the tab might be a bit off in terms of timing and detail, but at least if you play that, 
sound like the song >.<

intro riff
|-------------------------------------------------------------|
|-------------------------------------------------------------|
|-------------------------------------------------------------|
|---------------------3-2-1------------------------6h9p6------|
|--------444444-------3-2-1-------444444------5h8p5-----------|
|--000000------555555-3-2-1-000000------555555----------------|

|---------------------------------------------------------|
|---------------------------------------------------------|
|---------------------------------------------------------|
|---------------------3-2-1-------------------------------|
|--------444444-------3-2-1-------444444-5~---------------|
|--000000------555555-3-2-1-000000-------5~---------------|

verse riff
|----------------------------------------------------|
|----------------------------------------------------|
|----------------------------------------------------|
|------------------6-5~------------------------------|
|-----5h8p5-4h7p4--------5h8p5-4h7p4-----------------|
|---0-------------0-0--------------------------------|
cbf with all this
thats just the basic part of the verse riff,
theres alot of hammer ons and pull offs and shit, idk, youtube it or something.
Tap to rate this tab
# A B C D E F G H I J K L M N O P Q R S T U V W X Y Z