Song name
# A B C D E F G H I J K L M N O P Q R S T U V W X Y Z

The Red Shore - Slain By The Serpent tab

      I play this in drop C. But I am pretty sure they play it in drop A.
This was done by ear but I know that it is right.

D--------------------------------------------------------------------|
A-----------------------------------------------8--------------------|
F---------------------------------9----------------------------------|
C---------8h11p8---------8--11-------11--8--11------11--8--11--------|
G-7--10-------------7--10--------------------------------------------|
C--------------------------------------------------------------------|


D------------------------------------------------------------------|
A--------------------------------------------8---------------------|
F------------------------------9-----------------------------------|
C--------8h11p8---------8--11-----11--8--11------------------------|
G-7--10----------7--10---------------------------------------------|
C------------------------------------------------------------------|
Tap to rate this tab
 
# A B C D E F G H I J K L M N O P Q R S T U V W X Y Z