Song name
# A B C D E F G H I J K L M N O P Q R S T U V W X Y Z

The Red Thread - Wax Museum tab

Song-Wax Museum
Artist-The Red Thread
Album-Ship In The Attic, Birds In The Subway
Transcribed by-Oldreich87

 http://www.theredthread.com/

 Both guitars are on clean through the entire song

 Intro  (Guitar 1)

e|---------2-2-2-----------------------------------------------1-----|
B|--1------3-3-3------1-1-1-1-------------1-1-1-1-1-1-1-1------1-x16-|
G|---------2-2-2---------------1-1-1-1----2-2-2-2-2-2-2-2------2-----|
D|--2-----------------2-2-2-2--2-2-2-2----2-2-2-2-2-2-2-2------3-----|
A|--3-x45-------------3-3-3-3--2-2-2-2-------------------------------|
E|-------------------------------------------------------------------|
                                        P.M...........................
 Guitar 1 continued

e|--2-2-2-----------------------1--|
B|--3-3-3--1-1-1-1-----------1--1--|
G|--2-2-2-----------1-1-1-1--2--2--|
D|---------2-2-2-2--2-2-2-2--2--3--|
A|---------3-3-3-3--2-2-2-2--------|
E|---------------------------------|
            Arpeggio pattern on last two chords

 Guitar 2 (Comes in on arpeggio pattern)

e|-------------------|
B|--1p-----1---------|
G|------2------------|
D|-------------------|
A|-------------------|
E|-------------------|

 First verse  (Play 4 times)

e|------------------------------------------1-------2-2-2--|
B|--1-1-1-1-----------1-1-1-1-1-1-1-1-------1x16----3-3-3--|
G|-----------1-1-1-1--2-2-2-2-2-2-2-2-------2-------2-2-2--|
D|--2-2-2-2--2-2-2-2--2-2-2-2-2-2-2-2-------3--------------|
A|--3-3-3-3--2-2-2-2---------------------------------------|
E|---------------------------------------------------------|

 Guitar 2  (comes in right after the verse)

e|-------------------------------------------------|
B|--1p----1-----5-3-1-0--5-3-6-5-3-1-0-------------|
G|-----1-------------------------------1------x2---|
D|-------------------------------------------------|
A|-------------------------------------------------|
E|-------------------------------------------------|

 2nd verse (Same as first)

 Interlude  (Play 3 times)

e|-------------------------1------------------------1--------2-2-2---|
B|--1----------1-----------1x16-----1----------1----1--------3-3-3---|
G|--------1----2x8---------2--------------1----2----2--------2-2-2---|
D|--2x15--2----2-----------3--------2x15--2----2----3x32-------------|
A|--3-----2-------------------------3-----2--------------------------|
E|-------------------------------------------------------------------|

 This riff is played for the rest of the song with guitar 1 playing arpeggio patterns

e|-----------------------------------------|
B|--1p-----1----5-3-1-0--5-3-6-5-3-1-0-----|
G|------1------------------------------1---|
D|-----------------------------------------|
A|-----------------------------------------|
E|-----------------------------------------|

That's all I've got. Work out the timing and the arpeggio patterns and you'll be fine.

 P.m.=Palm Mute
   P=Pull-Off
Tap to rate this tab
# A B C D E F G H I J K L M N O P Q R S T U V W X Y Z