Song name
# A B C D E F G H I J K L M N O P Q R S T U V W X Y Z

The Redwalls - Put Us Down tab

Highlighted       Show chord diagrams
The Redwalls
The Redwalls(2007)
Put Us Down

I'm sick of not being able to tab out Redwalls songs because I can't understand what 
say.  So if the words are wrong too bad, at least the music is correct.

CHORDS USED:
  D  D6  D+   G  Em  A7   A  F#m Bm  C#m  E
e-2- -2- -2- -3- -0- -0- -0- -2- -2- -4- -7-
b-3- -3- -3- -3- -0- -2- -2- -2- -3- -5- -9-
g-2- -4- -3- -0- -0- -0- -2- -2- -4- -6- -9-
d-0- -0- -0- -0- -2- -2- -2- -4- -4- -6- -9-
a--- --- --- -2- -2- -0- -0- -4- -2- -4- -7-
e--- --- --- -3- -0- --- --- -2- --- --- ---

D    D6 D+
D    D6 D+
G    Em
G    Em

D               D6       D+
She wants me to stay all night
  D                 D6    D+
I wont sleep in her bed tonight
G                Em
Gives me morning for a cup
G                 Em
Then my life wont be no drag
    D D6 D+
But I know
     D     D6 D+
That you'd be
G  Em
Alright
G  Em
Alright
    A7
Someday
        D    D6 D+    D    D6 D+
That's okay

D         D6    D+
Don't you worry now
D      D6    D+
I will come around
G   Em
One day
     G        Em
When it's too late
   D               D6   D+
So if you find yourself awake
  D                  D6       D+
I hope you have some pills to take
G                   Em
'Cause I just wanna say goodnight
    G                Em
And skip your meaningless goodbyes
    A7
Say lie

If you try

   A                F#m
Anytime she's on my mind
          A        F#m
Don't you find the lies
      Bm         C#m     Bm    C#m
These things you say may come around
    Bm       C#m E  A
So don't you put us down

D    D6 D+
D    D6 D+
G    Em
G    Em

   D     D6  D+   D     D6   D+   G      Em        G         Em
e--------------------------------------------------------------------|
b--------------------------------------------------------------------|
g-/7----/9--/11--/7----/16--/18--/12----/14--/16--/12--/14--/16--/12-|
d--------------------------------------------------------------------|
a--------------------------------------------------------------------|
e--------------------------------------------------------------------|

   A7
e-------------------|
b-------------------|
G-/9-9-/7-7-/6-6\-2-|
d-------------------|
a-------------------|
e-------------------|

   A                F#m
Anytime she's on my mind
          A        F#m
Don't you find the lies
      Bm         C#m     Bm    C#m
These things you say may come around
    Bm       C#m E  A    F#m    A    F#m
So don't you put us down

A                F#m
Don't you put us down
A                F#m
Don't you put us down
A                F#m
Don't you put us down
A                F#m        A
Don't you put us down
Tap to rate this tab
# A B C D E F G H I J K L M N O P Q R S T U V W X Y Z