Guitaretab - guitar tabs
Song name
# A B C D E F G H I J K L M N O P Q R S T U V W X Y Z

The Redwalls - What A Shame tab

Intro:

E:| --------------------------------|:
B:| --------------------------------|:
G:| ----2-2-2p1-1-1------4-----4-4/7|:
D:| --------------------------------|:
A:| --------------------------------|:
E:| 2--2-2-2---2-2-2/5-55-5/0-0-0---|:1st time.  Second time end on E

Verse:

Same as Intro while guitar two is playing:  F#5, A5, E5 patterns

Pre-Chorus: [Play with slight chorus effect]

E:|---------|
B:|---------|
G:|-4~-7~-6~|
D:|-4~-7~-6~|
A:|-2~-5~-4~|
E:|---------|

Chorus 1: [Distorted] Strum
   F#5     A5     E5
E:|--------------------------------|
B:|--------------------------------|
G:|----------------------7//666----|
D:|-4///---7///---2///---7//666--4~|
A:|-4///---7///---2///---5//444--4~|
E:|-2///---5///---0///-------**--2~|

Solo: 
[ Tab from: http://www.guitaretab.com/t/the-redwalls/108195.html ]
E:|-------------------------------------------|
B:|-------------------------------------------|
G:|-7~~9br~-----------------------------------|
D:|-------------------7-----------------------|
A:|---------7/9~~-7-9---9~--9-7---7-----------|
E:|-----------------------------9---9-7-5-2~~~|

Verse 2:

Same picking pattern except guitar 2 comes in with distorted F#5 and A5 chords.

E:|------------|
B:|------------|
G:|------------|
D:|-XX-4--XX-7-|
A:|-XX-4--XX-7-|
E:|-XX-2--XX-5-|  Play twice
*Muffle after 1 beat on each chord

Chorus 2:

Play the same except at the end of the second time play this:

E:|---------|
B:|---------|
G:|---4---4-|
D:|---4---4-|
A:|-0h2-0h2-|
E:|---------| Play a couple times

Bridge section:

I don't have this all figured out but the base notes for the section are:
Bb, C, Db, F#, Eb.

Chorus 3:

Play like 3x

Outro:
Play intro again.

If anyone can figure out that Bridge section let me know!  If I get it, I'll post it.
Related for What A Shame tab