Song name
# A B C D E F G H I J K L M N O P Q R S T U V W X Y Z

The Redwalls - Speed Racer tab

The Redwalls
Universal Blues
Speed Racer

Key of A

/ = slide
^ = bend
~ = let ring

Chords
 A   D   E
-5- -5- -7-|
-5- -7- -9-|
-6- -7- -9-|
-7- -7- -9-|
-7- -5- -7-|
-5- --- ---|


RIFF
  A             A
E------------5---------------|
A----------5----8^---5-5^~---|
D------5-7---------7---------|
G-/7-7-----------------------|
B----------------------------|
E----------------------------|

VERSE
  Singing~~~~~~~~~~~~~~~~~~~~~~~~~~~~~~~~~~~~~~~~~~~RIFF~~~~~~~~
  A    A    A    A    A    A    D    D    E    D    A     A

VERSE
  Singing~~~~~~~~~~~~~~~~~~~~~~~~~~~~~~~~~~~~~~~~~~~INTERLUDE~~~
  A    A    A    A    A    A    D    D    E    D    A     A

BRIDGE
  Singing~~~~~~~~~~~~~~~~~~~~~~~~~~~~~~~~~
  D    D    A    A    D    D    E    E

SOLO
  A         A        A         A
E-------------5----------------------------|
B-------5-------8^~-----5^~-5^~----5^~-5^~-|
G---5-7---5/7-------5/7^~-7^~-5/7^~--7^~---|
D-7----------------------------------------|
A------------------------------------------|
E------------------------------------------|

  D         D         A          A
E--------5------10-8^------------------------|
B----5-8---8-10-----------5^~-5^~----5^~-5^~-|
G-/7------------------5/7^~-7^~-5/7^~--7^~---|
D--------------------------------------------|
A--------------------------------------------|
E--------------------------------------------|

  E             D
E-----------------------------|
B-----------------------------|
G-----------------------------|
D-----------------------------|
A-7--7-7--7-7-7-5--5-5--5-5-5-|
E-----------------------------|

RIFF

VERSE

INTERLUDE

OUTRO
  Singing~~~~~~~~~~~~~~~~~~~~~~~~~~~~~~~~~
  A    A    A    A    D    D    A    A    E    D

OUTRO RIFF
  A                   A
E------------5---------------|
A----------5----8-5-8-10^~---|
D------5-7-------------------|
G-/7-7-----------------------|
B----------------------------|
E----------------------------|

Tabbed out by Joe Hinx
Tap to rate this tab
# A B C D E F G H I J K L M N O P Q R S T U V W X Y Z