Song name
# A B C D E F G H I J K L M N O P Q R S T U V W X Y Z

The Redwalls - Thank You tab

-------------------------------------------------------------------------------
			     Thank You - The Redwalls
-------------------------------------------------------------------------------

Tabbed by:Jasem11
Email: jack.beck2@gmail.com

This is my first tab.  I did it all by ear so no copyright infringement, Although its 
perfect, as you will find out.  Anyway The Redwalls rock, and this is one of my favorite 
by them.  (i just tabbed the lead guitar.)

Tuning: Standard

Intro:

e|----------------------------------------------------|
B|----------------------------------------------------|
G|-------4b6r4--2------------------2h4------2~--------|
D|-----------------------2h4--------------------------|
A|----------------------------------------------------|
E|----------------------------------------------------|

e|-----------0---------------4-----------5-------7-----------5---------|
B|---------------------------------------------------------------------|
G|-------1---------------2/4----------6----------7-----------6---------|
D|---------------------------------------------------------------------|
A|----2----------------------------------------------------------------|
E|---------------------------------------------------------------------|


Verse:

Play after "These days it seems as though"

      Amaj7              (A7 form)                           D7
e|----9---------------------------------------5--------------/5------5-----|
B|----9---------------------5-------5------5-----------------/7------7-----|
G|----9-------------------------6------6---------------------/5------5-----|
D|----11---------------5---------------------------5---------/7------------|
A|----12-----------------------------------------------------/5------------|
E|-------------------------------------------------------------------------|

                                          A7
e|----------------------------------------5~---------|
B|----------------------------------------5~---------|
G|-----------2h4-------2~-----------------6~---------|
D|-----2h4--------------------------------5~---------|
A|---------------------------------------------------|
E|---------------------------------------------------|

e|----7/9\7------5-5-------88888-------|
B|-------------------------------------|
G|----7/9\7------6-6-------88888-------|
D|-------------------------------------|
A|-------------------------------------|
E|-------------------------------------|

e|-------------------0-----------4-----------5-------7-----------5---------|
B|-------------------------------------------------------------------------|
G|-----------1---------------2/4----------6----------7-----------6---------|
D|-------------------------------------------------------------------------|
A|----2--------------------------------------------------------------------|
E|-------------------------------------------------------------------------|


thats about it for the verses, there are a few variations, but not any that you can't 
out for yourself.

Chorus:

      A                     B
e|----5-5-5-5-5-5-5-5-------7-7-7-7-7-7-7-7-7-7-7-7------------------------|
B|----5-5-5-5-5-5-5-5-------7-7-7-7-7-7-7-7-7-7-7-7------------------------|
G|----6-6-6-6-6-6-6-6-------8-8-8-8-8-8-8-8-8-8-8-8------------------------|
D|----7-7-7-7-7-7-7-7-------9-9-9-9-9-9-9-9-9-9-9-9------------------------|
A|-------------------------------------------------------------------------|
E|-------------------------------------------------------------------------|

e|------------------------------------------99999---7---5---------|
B|----------------------------------------------------------------|
G|-------------6------4------2--------------99999---7---6---------|
D|---2--2/4-------------------------------------------------------|
A|----------------------------------------------------------------|
E|----------------------------------------------------------------|

      A                     B
e|----5-5-5-5-5-5-5-5-------7-7-7-7-7-7-7-7-7-7-7-7------------------------|
B|----5-5-5-5-5-5-5-5-------7-7-7-7-7-7-7-7-7-7-7-7------------------------|
G|----6-6-6-6-6-6-6-6-------8-8-8-8-8-8-8-8-8-8-8-8------------------------|
D|----7-7-7-7-7-7-7-7-------9-9-9-9-9-9-9-9-9-9-9-9------------------------|
A|-------------------------------------------------------------------------|
E|-------------------------------------------------------------------------|

e|----------------------------------------------------------------|
B|----------------------------------------------------------------|
G|-------------6------4------2----------------------2h4p2---------|
D|---2--2/4-------------------------------------------------------|
A|----------------------------------------------------------------|
E|----------------------------------------------------------------|

Bridge:

e|----------------------------------------------------|
B|----------------------------------------------------|
G|--------5---------5---------7-----7--6--5-----------|    x3
D|------4---4-----4----4----6---6---6--5--4-----------|
A|---5---------5--------5/7---------7--6--5-----------|
E|----------------------------------------------------|


| /  slide up
| \  slide down
| h  hammer-on
| p  pull-off
| ~  vibrato
| +  harmonic
| x  Mute note
===============================================================================
Tap to rate this tab
 
# A B C D E F G H I J K L M N O P Q R S T U V W X Y Z