Song name
# A B C D E F G H I J K L M N O P Q R S T U V W X Y Z

The Redwalls - Universal Blues tab

The Redwalls
Universal Blues
Key of D

CHORDS
 D  F#m7 Bm  G   A   A7
-2- -2- -2- -3- -0- -0-
-3- -2- -3- -0- -2- -2-
-2- -2- -4- -0- -2- -0-
-0- -2- -4- -0- -2- -2-
--- -4- -2- -2- -2- -0-
--- -2- --- -3- --- ---

 D   F#m7      Bm         D          G
----------------------------5-------------------|
----------------------3-5-5^~-53------3--3--3---|
---------2---2h4^--/4-------------4--/4--4--4---|
-0~--4~----4------------------------------------|
------------------------------------------------|
------------------------------------------------|

 A          D        A7      D           F#m7
--------------5--5~----------/10-10~--10-8^---|
---5--5--5--/7--7----5-5-5-5------------------|
-/6--6--6------------6-6-6-6------------------|
---------------------5-5-5-5------------------|
----------------------------------------------|
----------------------------------------------|

 Bm             D               G         A
------------------------------------------7----7-10--|
----------------------7-----------------7---10-------|
------7-9-7-----7-9-9^~-97---7-7---7-9---------------|
-/9-9--------/9-------------9-----9------------------|
-----------------------------------------------------|
-----------------------------------------------------|

 D            A7
-12^-12-10----10------------|
-----------12----12-12-12---|
----------------------------|
----------------------------|
----------------------------|
----------------------------|

Basic chord progression:
D  F#m7  Bm  D  G  A  D  A7

Tabbed by JOe Hinx
Tap to rate this tab
# A B C D E F G H I J K L M N O P Q R S T U V W X Y Z