Song name
# A B C D E F G H I J K L M N O P Q R S T U V W X Y Z

The Redwalls - You Cant Forget Yourself tab

BAND:  The Redwalls
ALBUM:  The Redwalls
SONG:  You Can't Forget Yourself
KEY:  D Major
CHORDS USED:   (D)     (Em)    (G)     (F#)    (Bm)    (A)     (A7)
               e-2-    e-0-    e-3-    e-2-    e-2-    e-0-    e-0-|
               b-3-    b-0-    b-3-    b-2-    b-3-    b-2-    b-2-|
               g-2-    g-0-    g-0-    g-3-    g-4-    g-2-    g-0-|
               d-0-    d-2-    d-0-    d-4-    d-4-    d-2-    d-2-|
               a---    a-2-    a-2-    a-4-    a-2-    a-0-    a-0-|
               e---    e-0-    e-3-    e-2-    e---    e---    e---|

INTRO
e-----5-3-----3-2-----0-----------|
b---3-------3-------2---3-----0-3-|
g---------------------------2-----|
d-0-------5-------4---------------|
a-------------------------2-------|
e---------------------------------|

VERSE
(Logan singing)
D
Well I've been lost before, my time is up and I am gone again
Em
Did you get, did you get, did you find out?  Oh-oh brother do ya?
D
Back in the days when we was young, back in the place we started from
Em
What a time, what a time, what a time we had...oh be that as it may
(Justin singing)
G                                                      D
We found a better way to get it in before your time is through
     G
Your time to laugh is over now, you've turned around to see the joke's on
D       A7
you, on you

CHORUS
D   G    F#          Bm    D     A      D    A7
You can't forget yourself, she's all ya got
D   G    F#          Bm    D     A      D
You can't forget yourself, she's all ya got

VERSE 2
(Logan singing)
D
And it all goes back to me in ways just like, just like the good old days
Em
Did you get, did you did, did you get off?  You can tell me, tell me do ya?
D
Back in the place when we was young, back in the place we started from
Em
What a life, what a life, what a life we had, but-uh be that as it may
G                                                        D
Seems like everyone is trying hard to find some place to hide
(Justin singing)
    G                                                         D
But we never cared for that, we never let them come break our lives, our
A7
lives

D   G    F#          Bm    D     A      D    A7
You can't forget yourself, she's all ya got
D   G    F#          Bm    D     A      D
You can't forget yourself, she's all ya got

  G                        D
e-------------------------------------|
b-3--2-3--2-0--3--2-3--2-0------------|
g--------------------------2----------|
d-------------------------------------|
a-------------------------------------|
e-------------------------------------|

  G                        D          A7
e--------------------------------------------|
b-3--2-3--2-0--3--2-3--2-0-------------------|
g--------------------------2---0-------------|
d----------------------------------4--2------|
a--------------------------------------------|
e--------------------------------------------|

D   G    F#          Bm    D     A      D    A7
You can't forget yourself, she's all ya got
D   G    F#          Bm    D     A      D    A7
You can't forget yourself, she's all ya got
D   G    F#          Bm    D     A      D
You can't forget yourself, she's all ya got
Tap to rate this tab
# A B C D E F G H I J K L M N O P Q R S T U V W X Y Z