Song name
# A B C D E F G H I J K L M N O P Q R S T U V W X Y Z

The Reign Of Kindo - Needle Thread tab

Tabbed by:Paul Houser

Notes: this song is played by 2 different guitars, i dont know which one plays what i 
put pieces together
that flow nicely. I am missing a few sections with the chords hits in the chorus so if 
can figure that out and email me at jpaulhouser@gmail.com
That would be great.


Intro:
E|----------------------------|-------13---|------------------------------|
B|-10-11-10------10-------10--|-13-15----15|---6---6/10------10-----------|
G|----------12-10---10-12-----|------------|-5---5-----10-12----10-12-----|
D|----------------------------|------------|--------------------------12--|
A|----------------------------|------------|------------------------------|
E|----------------------------|------------|------------------------------|

E|----------------------------------|
B|-10-11-10-------10-11-13-10-8-10-8|
G|----------12-10-------------------|
D|----------------------------------|
A|----------------------------------|
E|----------------------------------|


Breakdown:
E------------|
B------------|
G-3-5--3-5---|
D-----7----7-|
A------------|
E------------|

E|----------------------------|-------13---|
B|-10-11-10------10-------10--|-13-15----15|
G|----------12-10---10-12-----|------------|
D|----------------------------|------------|
A|----------------------------|------------|
E|----------------------------|------------|

E|----------------------------------|------------------------------|
B|-10-11-10-------10-11-13-10-8-10-8|---6---6/10------10-----------|
G|----------12-10-------------------|-5---5-----10-12----10-12-----|
D|----------------------------------|--------------------------12--|
A|----------------------------------|------------------------------|
E|----------------------------------|------------------------------|

Breakdown:
E|------------|
B|------------|
G|-3-5--3-5---|
D|-----7----7-|
A|------------|
E|------------|

(missing chords for "That Night..." and "There was summer in te air...")


Fading twilight in the sky...
E|-----11----------11---|
B|--13----13-13-11----13|
G|----------------------|
D|----------------------|
A|----------------------|
E|----------------------|

For both of us to share...(missing

Staring right through mine..
E|-------11-------|
B|-13-13----13-15-|
G|----------------|
D|----------------|
A|----------------|
E|----------------|

And Then i realized...
E|-------------------|-----------------------------------|
B|-10-11-10-------10-|---------------6---6/10-10-13-10-10|
G|----------12-10----|-10-12-------5---5-----------------|
D|-------------------|-------12-10-----------------------|
A|-------------------|-----------------------------------|
E|-------------------|-----------------------------------|

E|---------------------------------|
B|---6---6/10-------10-------------|
G|5---5------10-12----12-10--------|
D|---------------------------12-10-|
A|---------------------------------|
E|---------------------------------|


Wool right over mine
E|-11----11----11-|
B|----13----13----|
G|----------------|
D|----------------|
A|----------------|
E|----------------|

Trust is an open wound
E|-------------|
B|-----------8-|
G|-8-10-8-10---|
D|-------------|
A|-------------|
E|-------------|

(missing chords for "begging for needle and thread")

But the night...
E|------------------|
B|------------------|
G|-8-10-12-10-12-10-|
D|------------------|
A|------------------|
E|------------------|


While I Bled:
E|-------------10----------------------------------------------|
B|----------------11-------11----------------------------------|
G|----------10-------10-12---------------10-12------10-8-7-----|
D|-10-12-13-------------------12-8-10-13-------10-8--------10-8|
A|-------------------------------------------------------------|
E|-------------------------------------------------------------|

E|-------------10-------------------------------------|
B|----------11----13-------11----15-------13-13----15-|
G|-------10----------10-12----------15-10-------13----|
D|-10-12----------------------12----------------------|
A|----------------------------------------------------|
E|----------------------------------------------------|

E|----------------10------------------------------------------------|
B|-------------11----13--------11-----------------------------------|
G|-------10-12----------10-12----------------10-12------10-8-7------|
D|-10-12-------------------------12-8-10-12--------10-8--------10-8-|
A|------------------------------------------------------------------|
E|------------------------------------------------------------------|

E|-------------10--------------------------------------|
B|----------11----13-------11---------------13-9----11-|
G|-------10----------10-12---------------10------10----|
D|-10-12----------------------12-8-10-12---------------|
A|-----------------------------------------------------|
E|-----------------------------------------------------|

E|----------------------------------------------------|
B|-13-11----11-13-11----11-13-11----11-13-11----11-13-|
G|-------13----------13----------13----------13-------|
D|----------------------------------------------------|
A|----------------------------------------------------|
E|----------------------------------------------------|


Broke The Spell...
E|-------------------|----------------------------|
B|-17-16-13-13-16-13-|-10-11-10-------10-------10-|
G|-------------------|----------12-10----10-12----|
D|-------------------|----------------------------|
A|-------------------|----------------------------|
E|-------------------|----------------------------|

E|--------------------------------------------------11----11----|
B|---6---6/10-11-10----10-10---6---6/10-10-------10----13----13-|
G|-5---5------------10-------5---5---------10-12----------------|
D|--------------------------------------------------------------|
A|--------------------------------------------------------------|
E|--------------------------------------------------------------|

its such a shame...
E|-------10----------------------------------------------|
B|----------11-------11----------------------------------|
G|-10-12-------10-12------------8-10-12------10-8-7------|
D|----------------------12-8-10---------10-8--------10-8-|
A|-------------------------------------------------------|
E|-------------------------------------------------------|

E|-------------------------------11-|------------------------|
B|-----11---------------15-13-10----|-------11---------------|
G|8-10------------------------------|-10-12----12-7-8-7------|
D|-------12-8-10-12-13--------------|-------------------10-8-|
A|----------------------------------|------------------------|
E|----------------------------------|------------------------|

Outro:
E|------------------6---|
B|------------8-6-8---8-|
G|-7-8-7----------------|
D|-------10-8-----------|
A|----------------------|
E|----------------------|
Tap to rate this tab
 
# A B C D E F G H I J K L M N O P Q R S T U V W X Y Z