The Reign Of Kindo - Something In The Way That You Are tab

-------------------------------------------------------------------------------
	     SOMETHING IN THE WAY THAT YOU ARE - The Reign of Kindo
-------------------------------------------------------------------------------
Tabbed by: Paul Chun
Email: dreaminhours@gmail.com

Tuning: Standard Tuning (EADGBe)

Hey this is my first time tabbing a song. This band is absolute amazing but there weren't any
tabs available for them so I thought I would write for this song, which is one of my
favorites.

This song tab does not include the piano part, just the guitar part! But the piano is pretty
important in complementing the guitar! In fact, the guitar complements the guitar.

Intro:

  4--- 1---2---3---4--- 1---2---3---4--- 1---2- - -3 ---4--- 1---2---3---4---
e|----|----------------|----------------|----5h8p5----------|----------------|
B|----|----6--6--5---3-|----------------|----6----6h8-5---3-|----------------|
G|----|----7--7--5---3-|----------------|---------7---5---3-|----------------|
D|----|----------------|----------------|-------------------|----------------|
A|----|5-----5---------|--------------3-|5------------------|----------------|
E|----|----------5---3-|------------35-5|-------------5---3-|----------------|

Verse 1:

  4--- 1---2---3---4--- 1---2---3---4--- 1---2- - -3 ---4--- 1---2---3---4---
e|----|----------------|----------------|----5h8p5----------|----------------|
B|----|----6--6--5---3-|----------------|----6----6h8-5---3-|----------------|
G|----|----7--7--5---3-|----------------|---------7---5---3-|----------------|
D|----|----------------|----------------|-------------------|----------------|
A|----|5-----5---------|--------------3-|5------------------|----------------|
E|----|----------5---3-|------------35-5|-------------5---3-|----------------|

  1---2-- -3---4--- 1---2---3---4---
e|------10-5------3|----------------|
B|----6------6----3|----------------|
G|--7-------------4|----------------|
D|----------------5|----------------|
A|5---------------5|----------------|
E|----------------3|----------------|

Pre-Chorus:
  1---2---3---4--- 1---2---
e|----------------|--------|
B|----3---5---5-3-|--------|
G|--3---3-5---5-3-|--------|
D|----------------|--------|
A|1-------3-3-----|--------|
E|--------------3-|--------|

Verse 2:

  4--- 1---2---3---4--- 1---2---3---4--- 1---2- - -3 ---4--- 1---2---3---4---
e|----|----------------|----------------|----5h8p5----------|----------------|
B|----|----6--6--5---3-|----------------|----6----6h8-5---3-|----------------|
G|----|----7--7--5---3-|----------------|---------7---5---3-|----------------|
D|----|----------------|----------------|-------------------|----------------|
A|--3-|5-----5---------|--------------3-|5------------------|----------------|
E|35-5|----------5---3-|-------033--35-5|-------------5---3-|----------------|

  1-- -2-- -3---4---
e|------------------|
B|------------------|
G|-----7-10-9-7---7-|
D|7-10----------7---|
A|------------------|
E|------------------|

Pre-Chorus:
  1---2---3---4--- 1---2---3---4--- 1---2---3---4--- 1---2---3---4---
e|----------------|----------------|----------------|------3-3-3-3-3-|
B|----3---5---5-3-|----------------|----3---5---5-3-|------3-3-3-3-3-|
G|--3---3-5---5-3-|----------------|--3---3-5---5-3-|------3-3-3-3-3-|
D|----------------|----------------|----------------|------5-5-5-5-5-|
A|1-------3-3-----|----------------|1-------3-3-----|------5-5-5-5-5-|
E|--------------3-|----------------|--------------3-|------3-3-3-3-3-|

Chorus:

  D             A                   1 - - - 2 - - - 3 - - - 4 -- - 1---2---3 -  - -  4 -  - -
e|5-------------5-|----------------|---------------------------11-|--------11h14---------------|
B|5-------------5-|----------------|--11------11------11-------12-|-------------12h14----------|
G|7-------------6-|----------------|----11------11------11-----13-|------------------12h13-----|
D|7-------------7-|----------------|------13------13------13---13-|-----------------------12h13|
A|5-------------7-|----------------|---------------------------11-|----------------------------|
E|--------------5-|----------------|11------11------11------11----|----------------------------|

  Dm            C                   G/E
e|5-------------3-|----------------|3---------------|
B|6-------------3-|----------------|3---------------|
G|7-------------5-|----------------|4---------------|
D|7-------------5-|----------------|5---------------|
A|5-------------3-|----------------|5---------------|
E|----------------|----------------|3---------------|

  1---2---3---4--- 1---2---
e|5-5-5-----------|--------|
B|6-6-6-----5---3-|--------|
G|5-5-5-----5---3-|--------|
D|7-7-7---------3-|--------|
A|5-5-5---------3-|--------|
E|----------5---3-|--------|

Verse 3:

  4--- 1---2---3---4--- 1---2---3---4--- 1---2- - -3 ---4--- 1---2---3---4---
e|----|----------------|----------------|----5h8p5----------|----------------|
B|----|----6--6--5---3-|----------------|----6----6h8-5---3-|----------------|
G|----|----7--7--5---3-|----------------|---------7---5---3-|----------------|
D|----|----------------|----------------|-------------------|----------------|
A|--3-|5-----5---------|----------------|5------------------|----------------|
E|35-5|----------5---3-|-------033------|-------------5---3-|----------------|

  1-- -2-- -3---4---
e|------------------|
B|------------------|
G|-----7-10-9-7---7-|
D|7-10----------7---|
A|------------------|
E|------------------|

Pre-Chorus:
  1---2---3---4--- 1---2---3---4--- 1---2---3---4--- 1---2---3---4---
e|----------------|----------------|----------------|------3-3-3-3-3-|
B|----3---5---5-3-|----------------|----3---5---5-3-|------3-3-3-3-3-|
G|--3---3-5---5-3-|----------------|--3---3-5---5-3-|------3-3-3-3-3-|
D|----------------|----------------|----------------|------5-5-5-5-5-|
A|1-------3-3-----|----------------|1-------3-3-----|------5-5-5-5-5-|
E|--------------3-|----------------|--------------3-|------3-3-3-3-3-|

Chorus:

  D             A                   1 - - - 2 - - - 3 - - - 4 -- - 1---2---3 -  - -  4 -  - -
e|5-------------5-|----------------|---------------------------11-|--------11h14---------------|
B|5-------------5-|----------------|--11------11------11-------12-|-------------12h14----------|
G|7-------------6-|----------------|----11------11------11-----13-|------------------12h13-----|
D|7-------------7-|----------------|------13------13------13---13-|-----------------------12h13|
A|5-------------7-|----------------|---------------------------11-|----------------------------|
E|--------------5-|----------------|11------11------11------11----|----------------------------|

  Dm            C                   G
e|5-------------3-|----------------|3---------------|
B|6-------------3-|----------------|3---------------|
G|7-------------5-|----------------|4---------------|
D|7-------------5-|----------------|5---------------|
A|5-------------3-|----------------|5---------------|
E|----------------|----------------|3---------------|

  D             A                   1 - - - 2 - - - 3 - - - 4 -- - 1---2---3 -  - -  4 -  - -
e|5-------------5-|----------------|---------------------------11-|--------11h14---------------|
B|5-------------5-|----------------|--11------11------11-------12-|-------------12h14----------|
G|7-------------6-|----------------|----11------11------11-----13-|------------------12h13-----|
D|7-------------7-|----------------|------13------13------13---13-|-----------------------12h13|
A|5-------------7-|----------------|---------------------------11-|----------------------------|
E|--------------5-|----------------|11------11------11------11----|----------------------------|

  Dm            C                   G/E
e|5-------------3-|----------------|3---------------|
B|6-------------3-|----------------|3---------------|
G|7-------------5-|----------------|4---------------|
D|7-------------5-|----------------|5---------------|
A|5-------------3-|----------------|5---------------|
E|----------------|----------------|3---------------|

Bridge:

  D             Am                  
e|5-------------5-|----------------|
B|5-------------5-|----------------|
G|7-------------5-|----------------|
D|7-------------7-|----------------|  x3
A|5-------------7-|----------------|
E|--------------5-|----------------|

  Cm            G                   
e|3-------------3-|----------------|
B|4-------------3-|----------------|
G|5-------------4-|----------------|
D|5-------------5-|----------------|
A|3-------------5-|----------------|
E|--------------3-|----------------|

Chorus:

  D             A                   1 - - - 2 - - - 3 - - - 4 -- - 1---2---3 -  - -  4 -  - -
e|5-------------5-|----------------|---------------------------11-|--------11h14---------------|
B|5-------------5-|----------------|--11------11------11-------12-|-------------12h14----------|
G|7-------------6-|----------------|----11------11------11-----13-|------------------12h13-----|
D|7-------------7-|----------------|------13------13------13---13-|-----------------------12h13|
A|5-------------7-|----------------|---------------------------11-|----------------------------|
E|--------------5-|----------------|11------11------11------11----|----------------------------|

  Dm            C                   G/E              G
e|5-------------3-|----------------|3---------------|3|
B|6-------------3-|----------------|3---------------|3|
G|7-------------5-|----------------|4---------------|4|
D|7-------------5-|----------------|5---------------|5|
A|5-------------3-|----------------|5---------------|5|
E|----------------|----------------|3---------------|3|

Enjoy! I think its pretty accurate. Some chords may sound a little off and that's because
the bass plays a different bass note.

************************************

| /   slide up
| \   slide down
| h   hammer-on
| p   pull-off
| ~   vibrato
| +   harmonic
| x   Mute note
| b   Bend
| pb  Pre-bend
| br  Bend release
| pbr Pre-bend release
| brb Bend release bend

************************************
Tap to rate this tab
 
# A B C D E F G H I J K L M N O P Q R S T U V W X Y Z