The Relationship - Something More tab

The Relationship - Something More
Tab By: alvinhorafael@hotmail.com
---------------------------------------------------
Tuning: EADGBe

Intro

e|------------------------------------------|
B|------------------------------------------|
G|------------------------------------------|
D|------------------------------------------|
A|-----------2-4-2h4p2-----------2-4-2h4p2--|
E|-4-2-4-2-4-----------4-2-4-2-4------------|

Verse:

e|---------------------------------------------------------------|
B|---------------------------------------------------------------|
G|-----66------66------44--11--66------66------9-8-6-4-----------|
D|-66--66--66--66--44--44--22--66--66--66--66--9-8-6-4-44444444--|
A|-66--44--66--44--44--22--22--44--66--44--66--7-6-4-2-44444444--|
E|-44------44------22------00------44------44----------22222222--|

Chorus:

e|-------------------------------------------------------------------|
B|-------------------------------------------------------------------|
G|-99----------9~--99----------10~--99----------9~--99----------9~~--|
D|-99--77--99--9~--99--77--99--10~--99--77--99--9~--99--77--99--9~~--|
A|-77--77--99--7~--77--77--99--8~~--77--77--99--7~--77--77--99--7~~--|
E|-----55--77----------55--77-----------55--77----------55--77-------|

Verse
Chorus

Solo
e|--------------------------------------------------------------------------|
B|--------------------------------------------------------------------------|
G|--------------------------------------64----------------------9864--------|
D|-666-44-2-2h4/6-666-44-2-467-646/7-466--642-246-66-442-246-764----4-66-424|
A|--------------------------------------------------------------------------|
E|--------------------------------------------------------------------------|

Chorus

Instrumental:

e|-------------------------------|
B|-------------------------------|
G|-99--7b-----7b------9~--7------|
D|-99-----77------99--9~----976--|
A|-77-----77------99--7~---------|
E|--------55------77-------------|

Chorus

End with:

e|-7-|
B|-9-|
G|-9-|
D|-9-|
A|-7-|
E|-0-|
Tap to rate this tab
 
# A B C D E F G H I J K L M N O P Q R S T U V W X Y Z