Song name
# A B C D E F G H I J K L M N O P Q R S T U V W X Y Z

The Remembrants - Ill Be There For You tab

e|--------------------|
b|---2-2-0------------|
g|---------2-0-0-2~~4-|
d|--------------------|
a|-0------------------|
e|--------------------|

e|--------------------|
b|---2-2-0------------|
g|---------2-0-0-2~~4-|
d|--------------------|
a|-0------------------|
e|--------------------|

e|--------------------|
b|---2-2-0------------|
g|---------2-0-0-2~~4-|
d|--------------------|
a|-0------------------|
e|--------------------|

e|----------------------|
b|---2-2-0--------------|
g|---------2-0-0-2~~4-2-|
d|----------------------|
a|-0--------------------|
e|----------------------|

Tap to rate this tab
 
# A B C D E F G H I J K L M N O P Q R S T U V W X Y Z