Song name
# A B C D E F G H I J K L M N O P Q R S T U V W X Y Z

The Remembrants - Ill Be There For You tab

Hey guys! Ravin here, this is the tab for the instrumental of
I'll Be There For You by The Remembrants which is at the start
of the "One Before The Last One" episode of "Friends".
Ive been searching for this song for a long time,but haven't had
any luck finding it,so i thought of making my own tab for it.
Hope you enjoy!!! :) 

p - Pull Off
/ - Slide

Verse

   A                            G
e|-5----------------------------3-----|
B|-5----------------------------3-----|
G|-6------4-4/7-6-4----------4--4-----|
D|-7----7-----------7--7---7----5-----|
A|-7--7------------------7------5-----|
E|-5----------------------------3-----|

   A                             D
e|-5--------------------------------------|
B|-5--------------------------------------|
G|-6------4-4/7-6-4----7-6-4---7/9--------|
D|-7----7------------7-------7------------|
A|-7--7-----------------------------------|
E|-5--------------------------------------|

   G
e|-3--------------------------------------|
B|-3--------------------------------------|
G|-4--------------------------------------|
D|-5--777-7-6-4-----4-4-------------------|
A|-5------------7--7----------------------|
E|-3--------------------------------------|

   G
e|-3--------------------------------------|
B|-3--------------------------------------|
G|-4--------------------------------------|
D|-5--777-7-6-4--------4-6-4--------------|
A|-5------------7-7--7-------7------------|
E|-3----------------7---------------------|

Chorus
   A                        E
e|-5--------------------------------------|
B|-5--555-5/7p5---------------------------|
G|-6---------------6-7-6-4----------------|
D|-7-------------9----------7-------------|
A|-7--------------------------------------|
E|-5--------------------------------------|

   A                        E 
e|-5--------------------------------------|
B|-5--555-5/7p5---------------------------|
G|-6---------------6-7-6-4----------------|
D|-7-------------9----------7-------------|
A|-7--------------------------------------|
E|-5--------------------------------------|

   A                        G      
e|-5------------------------3-------------|
B|-5--555-5/7p5-------------3-------------|
G|-6---------------6-7-6-4--4-------------|
D|-7-------------9----------5-------------|
A|-7------------------------5-------------|
E|-5------------------------3-------------|

Feel free to use your own bends make it sound better!:)
Thanks
Tap to rate this tab
 
# A B C D E F G H I J K L M N O P Q R S T U V W X Y Z