The Remus Lupins - Fell Into Your Arms chords

-------------------------------------------------------------------------------
			     Fell Into Your Arms - THE REMUS LUPINS
-------------------------------------------------------------------------------
Tabbed by: Lumos
Email: os.lumos@gmail.com

It's one of my first tabs. I'm 98% sure it's right. So, enjoy it ;)

The chords are C- G - Em . Play whole song like this:
e|-----------------------------1---------------------------------------------|
B|-------1----------0--------------------------------------------------------|
G|---------------------------------------------------------------------------|
D|----2----------0---------2-------------------------------------------------|
A|--3----------2---------2---------------------------------------------------|
E|---------------------------------------------------------------------------|

Lyrics:
You are the only one for me
And I have found you.
Able to be tough and yet so sweet.
I found you.

Fell into my arms
As we won it all,
And I adore you
I care more than I know I really should
So I implore you
If you love me you’ll let me go
If you love me you’ll let me go
We’ve been through thick
And survived things others can’t imagine
I would gladly give my life to preserve your magic
The Boy-Who-Lived, the Chosen One
And I choose you
I wish it weren’t so, love
But, Ginny, there’s only one thing to do
Of you love me, let me go
If you love me, let me go
Tap to rate this tab
 
# A B C D E F G H I J K L M N O P Q R S T U V W X Y Z